Song name
# A B C D E F G H I J K L M N O P Q R S T U V W X Y Z

Blink 182 - Wishing Well tab

Okay well, I think it's already been done on TAB PRO, so yeah...

Standard Tuning: eBGDAE

INTRO x4
e|----------------------------------------------------|
B|----------------------------------------------------|
G|-10-10-10-9-5--5-5-5--5-5-x-x-5-5--5-5-x-x-5-5--5-5-|
D|-x--x--x--x-x--x-x-x--x-x-x-x-x-x--x-x-x-x-x-x--x-x-|
A|-8--8--8--7-3--3-3-3--3-3-x-x-3-3--3-3-x-x-3-3--3-3-|
E|----------------------------------------------------|

VERSE x4 (same as intro)
"Been gone a long time, i kinda lost my way, can't find it..."
e|----------------------------------------------------|
B|----------------------------------------------------|
G|-10-10-10-9-5--5-5-5--5-5-x-x-5-5--5-5-x-x-5-5--5-5-|
D|-x--x--x--x-x--x-x-x--x-x-x-x-x-x--x-x-x-x-x-x--x-x-|
A|-8--8--8--7-3--3-3-3--3-3-x-x-3-3--3-3-x-x-3-3--3-3-|
E|----------------------------------------------------|

PRE-CHORUS
"La da da daaa..."
Guitar 1 plays... x2
e|-----------------|-----------------|-----------------|-----------------|
B|-----------------|-----------------|-----------------|-----------------|
G|-5-5-5-5-5-5-5-5-|-5-5-5-5-5-5-5-5-|-5-5-5-5-5-5-5-5-|-5-5-5-5-5-5-5-5-|
D|-x-x-x-x-x-x-x-x-|-x-x-x-x-x-x-x-x-|-x-x-x-x-x-x-x-x-|-x-x-x-x-x-x-x-x-|
A|-3-3-3-3-3-3-3-3-|-3-3-3-3-3-3-3-3-|-3-3-3-3-3-3-3-3-|-3-3-3-3-3-3-3-3-|
E|-----------------|-----------------|-----------------|-----------------|

Guitar 2 plays... x2
e|-----------------|-----------------|-----------------|-----------------|
B|-----------------|-----------------|-----------------|-----------------|
G|--9---------10---|-----------------|--5----------7---|-----------------|
D|--10--------10---|-----------------|--5----------7---|-----------------|
A|--7---------8----|-----------------|--3----------5---|-----------------|
E|-----------------|-----------------|-----------------|-----------------|

CHORUS x4
"I went to a wishing well, that sank to the ocean floor..."
e|-------------------------|-------------------------|
B|--5-5-5-5---6-6-6-6---6--|--5-5-5-5---6-6-6-6---6--|
G|--5-5-5-5---7-7-7-7---7--|--5-5-5-5---7-7-7-7---7--|
D|--x-x-x-x---x-x-x-x---x--|--x-x-x-x---x-x-x-x---x--|
A|--3-3-3-3---5-5-5-5---5--|--3-3-3-3---5-5-5-5---5--|
E|-------------------------|-------------------------|

INTRO x4
e|----------------------------------------------------|
B|----------------------------------------------------|
G|-10-10-10-9-5--5-5-5--5-5-x-x-5-5--5-5-x-x-5-5--5-5-|
D|-x--x--x--x-x--x-x-x--x-x-x-x-x-x--x-x-x-x-x-x--x-x-|
A|-8--8--8--7-3--3-3-3--3-3-x-x-3-3--3-3-x-x-3-3--3-3-|
E|----------------------------------------------------|

VERSE x4 (same as intro)
"On the narrowing line, what a way to sort my troubles..."
e|----------------------------------------------------|
B|----------------------------------------------------|
G|-10-10-10-9-5--5-5-5--5-5-x-x-5-5--5-5-x-x-5-5--5-5-|
D|-x--x--x--x-x--x-x-x--x-x-x-x-x-x--x-x-x-x-x-x--x-x-|
A|-8--8--8--7-3--3-3-3--3-3-x-x-3-3--3-3-x-x-3-3--3-3-|
E|----------------------------------------------------|

PRE-CHORUS
"La da da daaa..."
Guitar 1 plays... x2
e|-----------------|-----------------|-----------------|-----------------|
B|-----------------|-----------------|-----------------|-----------------|
G|-5-5-5-5-5-5-5-5-|-5-5-5-5-5-5-5-5-|-5-5-5-5-5-5-5-5-|-5-5-5-5-5-5-5-5-|
D|-x-x-x-x-x-x-x-x-|-x-x-x-x-x-x-x-x-|-x-x-x-x-x-x-x-x-|-x-x-x-x-x-x-x-x-|
A|-3-3-3-3-3-3-3-3-|-3-3-3-3-3-3-3-3-|-3-3-3-3-3-3-3-3-|-3-3-3-3-3-3-3-3-|
E|-----------------|-----------------|-----------------|-----------------|

Guitar 2 plays... x2
e|-----------------|-----------------|-----------------|-----------------|
B|-----------------|-----------------|-----------------|-----------------|
G|--9---------10---|-----------------|--5----------7---|-----------------|
D|--10--------10---|-----------------|--5----------7---|-----------------|
A|--7---------8----|-----------------|--3----------5---|-----------------|
E|-----------------|-----------------|-----------------|-----------------|

CHORUS x4
"I went to a wishing well, that sank to the ocean floor..."
e|-------------------------|-------------------------|
B|--5-5-5-5---6-6-6-6---6--|--5-5-5-5---6-6-6-6---6--|
G|--5-5-5-5---7-7-7-7---7--|--5-5-5-5---7-7-7-7---7--|
D|--x-x-x-x---x-x-x-x---x--|--x-x-x-x---x-x-x-x---x--|
A|--3-3-3-3---5-5-5-5---5--|--3-3-3-3---5-5-5-5---5--|
E|-------------------------|-------------------------|

BRIDGE a x2
e|-------------------------|-------------------------|
B|-------------------------|-------------------------|
G|--5--5-5---5--5-5---5-5--|--5--5-5---5--5-5---5-5--|
D|--x--x-x---x--x-x---x-x--|--x--x-x---x--x-x---x-x--|
A|--3--3-3---3--3-3---3-3--|--3--3-3---3--3-3---3-3--|
E|-------------------------|-------------------------|

BRIDGE b x2
e|-----------------|-----------------|-----------------|-----------------|
B|-----------------|-----------------|-----------------|-----------------|
G|-5-5-5-5-5-5-5-5-|-5-5-5-5-5-5-5-5-|-5-5-5-5-5-5-5-5-|-5-5-5-5-5-5-5-5-|
D|-x-x-x-x-x-x-x-x-|-x-x-x-x-x-x-x-x-|-x-x-x-x-x-x-x-x-|-x-x-x-x-x-x-x-x-|
A|-3-3-3-3-3-3-3-3-|-3-3-3-3-3-3-3-3-|-3-3-3-3-3-3-3-3-|-3-3-3-3-3-3-3-3-|
E|-----------------|-----------------|-----------------|-----------------|

PRE-CHORUS
"La da da daaa..."
Guitar 1 plays... x2
e|-----------------|-----------------|-----------------|-----------------|
B|-----------------|-----------------|-----------------|-----------------|
G|-5-5-5-5-5-5-5-5-|-5-5-5-5-5-5-5-5-|-5-5-5-5-5-5-5-5-|-5-5-5-5-5-5-5-5-|
D|-x-x-x-x-x-x-x-x-|-x-x-x-x-x-x-x-x-|-x-x-x-x-x-x-x-x-|-x-x-x-x-x-x-x-x-|
A|-3-3-3-3-3-3-3-3-|-3-3-3-3-3-3-3-3-|-3-3-3-3-3-3-3-3-|-3-3-3-3-3-3-3-3-|
E|-----------------|-----------------|-----------------|-----------------|

Guitar 2 plays... x2
e|-----------------|-----------------|-----------------|-----------------|
B|-----------------|-----------------|-----------------|-----------------|
G|--9---------10---|-----------------|--5----------7---|-----------------|
D|--10--------10---|-----------------|--5----------7---|-----------------|
A|--7---------8----|-----------------|--3----------5---|-----------------|
E|-----------------|-----------------|-----------------|-----------------|

CHORUS x4
"I went to a wishing well, that sank to the ocean floor..."
e|-------------------------|-------------------------|
B|--5-5-5-5---6-6-6-6---6--|--5-5-5-5---6-6-6-6---6--|
G|--5-5-5-5---7-7-7-7---7--|--5-5-5-5---7-7-7-7---7--|
D|--x-x-x-x---x-x-x-x---x--|--x-x-x-x---x-x-x-x---x--|
A|--3-3-3-3---5-5-5-5---5--|--3-3-3-3---5-5-5-5---5--|
E|-------------------------|-------------------------|

CHORUS b x4
"I went to a wishing well, that sank to the ocean floor..."
e|-------------------------|-------------------------|
B|-------------------------|-------------------------|
G|-7-7-7-7--5-5-5-5--5--5--|-7-7-7-7--5-5-5-5--5--5--|
D|-x-x-x-x--x-x-x-x--x--x--|-x-x-x-x--x-x-x-x--x--x--|
A|-5-5-5-5--3-3-3-3--3--3--|-5-5-5-5--3-3-3-3--3--3--|
E|-------------------------|-------------------------|

e|-------------------------|------------------|
B|-------------------------|------------------|
G|-7-7-7-7--5-5-5-5--5--5--|-9--10--5---5-5-5-|
D|-x-x-x-x--x-x-x-x--x--x--|-x--x---x---x-x-x-|
A|-5-5-5-5--3-3-3-3--3--3--|-7--8---3---3-3-3-|
E|-------------------------|------------------|

OUTRO x1
e|----------------------------------------------------|
B|----------------------------------------------------|
G|-10-10-10-9-5--5-5-5--5-5-x-x-5-5--5-5-x-x-5-5--5-5-|
D|-x--x--x--x-x--x-x-x--x-x-x-x-x-x--x-x-x-x-x-x--x-x-|
A|-8--8--8--7-3--3-3-3--3-3-x-x-3-3--3-3-x-x-3-3--3-3-|
E|----------------------------------------------------|
Tap to rate this tab
# A B C D E F G H I J K L M N O P Q R S T U V W X Y Z