Song name
# A B C D E F G H I J K L M N O P Q R S T U V W X Y Z

Blink 182 - Boxing Day tab

blink-182
"Boxing Day"
2012 Dogs Eating Dogs EP

 Intro
 
|-------------------------------------------------------|
|-3-------3--1--------1-0----3-------3--1--------1-0----|
|----0----------0---0------0----0----------0---0------0-|
|-------------------------------------------------------|
|-------2----0----0-----0----2-----2----0----0----------|
|-3-----------------------------------------------------|


|-------------------------------------------------------|
|-3-------3--1--------1-0----3-------3--1--------(1)----|
|----0----------0---0------0----0-----------------------|
|-------------------------------------------------------|
|-2-----2----0----0----------2-----2----0--------(0)----|
|-------------------------------------------------------|


   Verse
   4/4
||-----------------|----------------|
||o----8-8-8-8-8-8-|----8-8-8-8-8-8-|
||--0--0-0-0-0-0-0-|-0--0-0-0-0-0-0-|
||--5--5-5-5-5-5-5-|-4--4-4-4-4-4-4-|
||o----------------|----------------|
||-----------------|----------------|


                                         8x
|----------------|-----------------------||
|----8-8-8-8-8-8-|-12-13-13-13-x-12-x-x-o||
|-0--0-0-0-0-0-0-|--x--x--x--x-x--0-x-x--||
|-5--5-5-5-5-5-5-|--9-10-10-10-x--9-x-x--||
|-7--7-7-7-7-7-7-|----------------------o||
|----------------|-----------------------||


   Pre-Chorus
||-----------------|----------------|----8-8-8-8-8-8-|----8-8-8-8-8-8--|
||o-8--8-8-8-8-8-8-|-8--8-8-8-8-8-8-|----8-8-8-8-8-8-|----8-8-8-8-8-8--|
||--0--0-0-0-0-0-0-|-0--0-0-0-0-0-0-|-0--0-0-0-0-0-0-|-0--0-0-0-0-0-0--|
||--5--5-5-5-5-5-5-|-5--5-5-5-5-5-5-|-x--x-x-x-x-x-x-|-x--x-x-x-x-x-x--|
||o----------------|----------------|-5--5-5-5-5-5-5-|-5--5-5-5-5-5-5--|
||-----------------|----------------|----------------|-----------------|


|----------------|----------------|----8-8-8-8-8-8-|----8-8-8-8-8-8--||
|----8-8-8-8-8-8-|----8-8-8-8-8-8-|----8-8-8-8-8-8-|----8-8-8-8-8-8-o||
|-0--0-0-0-0-0-0-|-0--0-0-0-0-0-0-|-0--0-0-0-0-0-0-|-0--0-0-0-0-0-0--||
|-5--5-5-5-5-5-5-|-5--5-5-5-5-5-5-|-x--x-x-x-x-x-x-|-x--x-x-x-x-x-x--||
|-7--7-7-7-7-7-7-|-7--7-7-7-7-7-7-|-5--5-5-5-5-5-5-|-5--5-5-5-5-5-5-o||
|----------------|----------------|----------------|-----------------||


 Chorus
|----3-3----3--|----3-3----3--|--------------|--------------|
|----3-3----3--|----3-3----3--|----1-1----1--|----1-1----1--|
|----0-0----0--|----0-0----0--|----0-0----0--|----0-0----0--|
|----0-0----0--|----0-0----0--|----2-2----2--|----2-2----2--|
|----2-2----2--|----2-2----2--|-3--3-3-3--3--|-3--3-3-3--3--|
|-3--3-3-3--3--|-3--3-3-3--3--|--------------|--------------|


|----0-0----0--|----0-0----0--|--------------|--------------|
|----0-0----0--|----0-0----0--|----1-1----1--|----1-1----1--|
|----0-0----0--|----0-0----0--|----0-0----0--|----0-0----0--|
|----2-2----2--|----2-2----2--|----2-2----2--|----2-2----2--|
|----2-2----2--|----2-2----2--|-3--3-3-3--3--|-3--3-3-3--3--|
|-0--0-0-0--0--|-0--0-0-0--0--|--------------|--------------|
Tap to rate this tab
# A B C D E F G H I J K L M N O P Q R S T U V W X Y Z