Song name
# A B C D E F G H I J K L M N O P Q R S T U V W X Y Z

Blink 182 - Snake Charmer tab

Snake Charmer
blink-182
Neighborhoods (2011)

Standard Tuning

intro
---------------------------------------------------------|
---------------------------------------------------------|
-6-6-6-66-66667-7-7-77-77779-9-9-99-99999-9-9-99-9999----|
---------------------------------------------------------|
-4-4-4-44-44445-5-5-55-55557-7-7-77-77777-7-7-77-7777----|
---------------------------------------------------------|

------------------------------------------------|
------------------------------------------------|
-6-6-6-66-66667-7-7-77-77772-2-2-22-22222~------|
------------------------------------------------|
-4-4-4-44-44445-5-5-55-55550-0-0-00-00000~------|
------------------------------------------------|

main riff
----------------------------|
----------------------------|
----------------------------| 8x
-11/7--7-7--7-7-7--7--7/6---|
-11/7--7-7--7-7-7--7--7/6---|
--9/5--5-5--5-5-5--5--5/4---|

end with
-----
-----
-----
--7--
--7--
--5--

Verse ( no guitar here, but i tabbed out the keyboard part thats played in the verse)

-5~---------------------------------|
-----5-6~----/8-6-5~----------------|
------------------------6--7~-------|
--------------------------------7---| 2x
------------------------------------|
------------------------------------|

Chorus
play the main riff 8x

post-chorus
play the open A string repeatedly for 4 measures (Tom uses some effects here.)

Main riff 4x

Verse piano riff 2x

Chorus

Bridge (no guitar, just synthesizers. here are the chords to match Tom's "ahh" sounds)
------------------|
------------------|
-6---4---7---6----|
------------------|
-4---2---5---4----| 6x
------------------|

Chorus

Outro
---------------------------------------------------------|
---------------------------------------------------------|
-6-6-6-66-66667-7-7-77-77779-9-9-99-99999-9-9-99-9999----|
---------------------------------------------------------|
-4-4-4-44-44445-5-5-55-55557-7-7-77-77777-7-7-77-7777----|
---------------------------------------------------------|

------------------------------------------------|
------------------------------------------------|
-6-6-6-66-66667-7-7-77-77772-2-2-22-22222~------|
------------------------------------------------|
-4-4-4-44-44445-5-5-55-55550-0-0-00-00000~------|
------------------------------------------------|

Slow part after the outro just uses the piano riff from the verse
END


************************************

| /   slide up
| \   slide down
| h   hammer-on
| p   pull-off
| ~   vibrato
| +   harmonic
| x   Mute note
| b   Bend
| pb  Pre-bend
| br  Bend release
| pbr Pre-bend release
| brb Bend release bend

************************************
Tap to rate this tab
# A B C D E F G H I J K L M N O P Q R S T U V W X Y Z