Song name
# A B C D E F G H I J K L M N O P Q R S T U V W X Y Z

Blink 182 - Give Me One Good Reason tab

-------------------------------------------------------------------------------
                             Give Me One Good Reason Why - Blink 182
-----------------------------------------------------------------------------

Tabbed by:SlimCognito51

Tuning:Standard

*  Harmonic
PM Palm Mute
h  Hammer On
x Mute Note
/ Slide

e|------------------------------------------------------------------------|
B|------------------------------------------------------------------------|
G|----1---------1---------------------------------------------------------|
D|------2----2-----2-----4--2-----4--2---4---2x---------------------------|
A|-2------2-----------2--------2-------2----------------------------------|
E|------------------------------------------------------------------------|


e|-------------------------------------------------------------------------|
B|-------------------------------------------------------------------------|
G|----1----------1-------------------------1---------1---------------------|
D|------2-----2----2-----2--2-----2--2-------2----2----2----4--4-4*5*5*5*5-|
A|-4-------4----------0--------0---------4------4---------2----------------|
E|-------------------------------------------------------------------------|


e|------------------------------------------------------------|
B|------------------------------------------------------------|
G|-------------4-4-4-4-4------6-6-6-6-6--2-2-2-2-2------------|
D|-2-2-2-2-2---4-4-4-4-4--2x--6-6-6-6-6--2-2-2-2-2------------|
A|-2-2-2-2-2---2-2-2-2-2------4-4-4-4-4--0-0-0-0-0------------|
E|-0-0-0-0-0--------------------------------------------------|
 PM---------PM---------     PM-------- PM---------------------|

e|-----------------------------------------------------------------|
B|-----------------------------------------------------------------|
G|-6-6-6-6-6--4-4-4-4-4--------------------------------------------|
D|-6-6-6-6-6--4-4-4-4-4--------------------------------------------|
A|-4-4-4-4-4--2-2-2-2-2--------------------------------------------|
E|-----------------------------------------------------------------|
 PM--------- PM----------------------------------------------------|


e|---------------------------------------------------------------------|
B|---------------------------------------------------------------------|
G|---------------------------------------------------------------------|
D|-2-2-2-2---6---------1h2-2--------2x---------------------------------|
A|-2-2-2-2------2-2-2--------------------------------------------------|
E|-0-0-0-0-------------------------------------------------------------|
               PM----


e|-----------------------------------------------------------|
B|-----------------------------------------------------------|
G|-----------------------------------------------------------|
D|-2------6-----9--------2-------6-------9-----7-------------|
A|-2--8x--6--8x-9--16x---2--8x---6--8x---9--8x-7--8x---------|
E|-0------4-----7--------0-------4-------7-----5-------------|


e|-------------------------------------------------------|
B|-------------------------------------------------------|
G|-9-9-9--111111--13-13-13--14-14-14---13-13--9-9-9-9-9--|
D|-x-x-x--x-x-x---x--x--x----x--x--x----x-x---x-x-x-x-x--|
A|-7-7-7--9-9-9---11-11-11--12-12-12---11-11--7-7-7-7-7--|
E|-------------------------------------------------------|

e|----------------------------------------------------|
B|----------------------------------------------------|
G|-4-4-4-4-4-4--9-9-9--4-4-4-4-4-4--------------------|
D|-x-x-x-x-x-x--x-x-x--x-x-x-x-x-x--------------------|
A|-2-2-2-2-2-2--7-7-7--2-2-2-2-2-2--------------------|
E|----------------------------------------------------|

e|---------------------------------------------------------------------|
B|---------------------------------------------------------------------|
G|-9-9-9--111111--13-13-13--14-14-14---13-13--9-9-11111111-------------|
D|-x-x-x--x-x-x---x--x--x----x--x--x----x-x---x-x-x-x-x-x--------------|
A|-7-7-7--9-9-9---11-11-11--12-12-12---11-11--7-7-9-9-9-9--------------|
E|---------------------------------------------------------------------|

e|---------------------------------------------------------------|
B|---------------------------------------------------------------|only do
G|---------------------------------------------------------------|the slide
D|-13--9--9--1111111--13--9-/-8-/-9------------------------------|on the
A|--x--x--x--x-x-x-x---x--x-/-x-/-x------------------------------|2nd time
E|-11--7--7--9-9-9-9--11--7-/-6-/-7------------------------------|you play it
Tap to rate this tab
 
# A B C D E F G H I J K L M N O P Q R S T U V W X Y Z