Song name
# A B C D E F G H I J K L M N O P Q R S T U V W X Y Z

Blink 182 - Love Is Dangerous tab

wew...this is my first cover
i hope it is good enough though

pls rate and comment if you got some problems....and rock on !m/

this is my own version

Tab here:
Intro:
e|---------------------------------------------------------|
B|---------------------------------------------------------|
G|---------------------------------------------------------|
D|-------4-2-0----4-2-0------------------------------------|
A|---2-2---------------------------------------------------|
E|------------------------------- 2/3----------------------|

Verse: (just listen for the right rhythm)
e|-------------------------------------------------------------------|
B|-------------------------------------------------------------------|
G|-----4---6---------------------------------------------------------|
D|-----x---x----5----------------------------------------------------|
A|-----2---4----x----------------------------------------------------|
E|--------------3----------------------------------------------------|

Pre-Chorus:
e|-----------------------------------------------------------------------------|
B|-----------------------------------------------------------------------------|
G|-----------------------------------------------------------------------------|
D|----5-5-5-5-5-5-5-5----------------------------------------------------------|
A|----x-x-x-x-x-x-x-x----------------------------------------------------------|
E|----3-3-3-3-3-3-3-3----------------------------------------------------------|

Chorus: (like i said just listen to the rhythm...hehe)
e|-----------------------------------------------------------------|
B|-----------------------------------------------------------------|
G|--4-----6--------------------------------------------------------|
D|--4-----6-------5------------------------------------------------|
A|--2-----4-------5------------------------------------------------|
E|----------------3------------------------------------------------|

Bridge:
e|-----------------------------------------------------------------------------|
B|-----------------------------------------------------------------------------|
G|----11---7----11---7----9----7----9----9----14---11---14----11---5-----7-----|
D|-----x----x----x----x----x----x----x----x-----x-----x-----x-----x----x----x--|
A|-----9----5----9----5----7----5----7----5----12----9----12----9----7-----5---|
E|-----------------------------------------------------------------------------|

Ending:
e|--------------------------------------------------------------------------|
B|--------------------------------------------------------------------------|
G|--------------------------------------------------------------------------|
D|--------------------------------------------------------------------------|
A|---2--0-------------------------------------------------------------------|
E|-----------5--------------------------------------------------------------|

just listen to the rhythm of the song....
Tap to rate this tab
 
# A B C D E F G H I J K L M N O P Q R S T U V W X Y Z