Song name
# A B C D E F G H I J K L M N O P Q R S T U V W X Y Z

Blink 182 - Heres Your Letter tab

Intro
E|----------------------------------------------------------------------------------------|
B|----------------------------------------------------------------------------------------|
G|-----------77777777-66666666-44444444----------77777777---------------------------------|
D|--44444444-77777777-77777777-44444444-44444444-77777777-77777777777777777~--------------|
A|--44444444-55555555-44444444-22222222-44444444-55555555-77777777777777777~let ring out--|
E|--22222222----------------------------22222222----------55555555555555555~--------------|


Verse (0:25)
E|----------------------------------------------------------------------------------------|
B|----------------------------------------------------------------------------------------|
G|----------------------------------------------------------------------------------------|
D|-----------------------------------------------------------7~---------------------------|
A|-----------------------------222-444-555-4444444-----------7~let ring out---------------|
E|--222-444-555555555555555555--------------------222-444-55-5~---------------------------|


Chorus
E|---------------------------------------------------------------------------|
B|---------------------------------------------------------------------------|
G|----------------------7777777777777777----------------------7777777777777x-|
D|--777-666-222-4444444-7777777777777777-777-666-000-44444444-7777777777777x-|
A|--777-666-222-4444444-5555555555555555-777-666-222-44444444-5555555555555x-|
E|--555-444-000-2222222------------------555-444-000-22222222----------------|

Intro Again
E|----------------------------------------------------------------------------------------|
B|----------------------------------------------------------------------------------------|
G|-----------77777777-66666666-44444444----------77777777---------------------------------|
D|--44444444-77777777-77777777-44444444-44444444-77777777-77777777777777777x--------------|
A|--44444444-55555555-44444444-22222222-44444444-55555555-77777777777777777x--------------|
E|--22222222----------------------------22222222----------55555555555555555x--------------|



Verse (1:08)
E|----------------------------------------------------------------------------------------|
B|----------------------------------------------------------------------------------------|
G|----------------------------------------------------------------------------------------|
D|-----------------------------------------------------------7~---------------------------|
A|-----------------------------222-444-555-4444444-----------7~let ring out---------------|
E|--222-444-555555555555555555--------------------222-444-55-5~---------------------------|



Chorus
E|---------------------------------------------------------------------------|
B|---------------------------------------------------------------------------|
G|----------------------7777777777777777----------------------7777777777777--|repeat 3 more times
D|--777-666-222-4444444-7777777777777777-777-666-000-44444444-7777777777777--|
A|--777-666-222-4444444-5555555555555555-777-666-222-44444444-5555555555555--|
E|--555-444-000-2222222------------------555-444-000-22222222----------------|


Bridge (1:41)
E|------------------------------------------------------------------|
B|------------------------------------------------------------------|
G|--666666666666666-777777777777777-666666666666666-777777777777777-|
D|--777777777777777-777777777777777-777777777777777-777777777777777-|
A|--444444444444444-555555555555555-444444444444444-555555555555555-|
E|------------------------------------------------------------------|


Bridge Continued
E|-------------------------------------------------------------------------------------|
B|-------------------------------------------------------------------------------------|
G|----------------------------------77777777777777777777777777777----------------------|
D|--444444444444444-666666666666666-77777777777777777777777777777-repeat one more time-|
A|--444444444444444-777777777777777-55555555555555555555555555555----------------------|
E|--222222222222222-444444444444444----------------------------------------------------|



Chorus
E|---------------------------------------------------------------------------|
B|---------------------------------------------------------------------------|
G|----------------------7777777777777777----------------------7777777777777--|repeat 3 more times
D|--777-666-222-4444444-7777777777777777-777-666-000-44444444-7777777777777--|
A|--777-666-222-4444444-5555555555555555-777-666-222-44444444-5555555555555--|
E|--555-444-000-2222222------------------555-444-000-22222222----------------|



Outro
E|------------------------------------------------------------------------------------------|
B|------------------------------------------------------------------------------------------|
G|-----------77777777-66666666-44444444----------77777777-----------------------------------|
D|--44444444-77777777-77777777-44444444-44444444-77777777-77777777777777777-4~--------------|
A|--44444444-55555555-44444444-22222222-44444444-55555555-77777777777777777-4~-let ring out-|
E|--22222222----------------------------22222222----------55555555555555555-2~--------------|
Tap to rate this tab
# A B C D E F G H I J K L M N O P Q R S T U V W X Y Z