Song name
# A B C D E F G H I J K L M N O P Q R S T U V W X Y Z

Blink 182 - Aliens Exist tab

Intro [00.02]
E|-----------------------------------------------------------|
B|-----------------------------------------------------------|
G|--444444444444--4------------------------------------------|
D|--444444444444--4------------------------------------------|
A|--222222222222--2------------------------------------------|
E|-----------------------------------------------------------|
PM  ............



Verse riff 1 [00.22]
E|-----------------------------------------------------------|
B|-----------------------------------------------------------|
G|--44444444-------------------------------------------------|
D|--44444444-22222222-66666666-22222222----------------------|
A|--22222222-22222222-66666666-22222222----------------------|
E|-----------00000000-44444444-00000000----------------------|    x2



Verse riff 2 [00.31]
E|-----------------------------------------------------------|
B|-----------------------------------------------------------|
G|--44444444-------------------------------------------------|
D|--44444444-44444444-66666666-22222222----------------------|
A|--22222222-44444444-66666666-22222222----------------------|
E|-----------22222222-44444444-00000000----------------------|    x2
PM  ...................................


Verse riff 2 [00.40]    
E|-----------------------------------------------------------|
B|-----------------------------------------------------------|
G|--44444444-66666666----------------------------------------|
D|--44444444-66666666-66666666-22222222----------------------|
A|--22222222-44444444-66666666-22222222----------------------|
E|--------------------44444444-00000000----------------------|    x1
PM  ...................................


Verse riff 2 [00.45]
E|-----------------------------------------------------------|
B|-----------------------------------------------------------|
G|--44444444-------------------------------------------------|
D|--44444444-44444444-66666666-------------------------------|
A|--22222222-44444444-66666666-------------------------------|
E|-----------22222222-44444444-------------------------------|    x1
PM  ..........................



Chorus [00.50]
E|---------------------------------------------------------------------|
B|---------------------------------------------------------------------|
G|--4--4444-----------4--4444------------------------------------------|
D|--4--4444--4--4444--4--4444--4--4444---------------------------------|
A|--2--2222--4--4444--2--2222--4--4444---------------------------------|
E|-----------2--2222-----------2--2222---------------------------------|


Chorus [00.58]
E|---------------------------------------------------------------------|
B|---------------------------------------------------------------------|
G|---------------------------------------------------------------------|
D|---------------------------------------------------------------------|
A|----66-66-66-66-77-77-77-77----------66-66-66-66-77-77-77-77---------|
E|------7--7--7--7--7--7--7--7-----------7--7--7--7--7--7--7--7--------|
PM    ........................         ........................


Chorus [01.07]
E|-----------------------------------------------------------|
B|-----------------------------------------------------------|
G|--------4~-------------------------------------------------|
D|--4~-2~-4~---4~-2------------------------------------------|
A|--4~-2~-2~---4~-2------------------------------------------|
E|--2~-0~------2~-0------------------------------------------|



Verse riff 1 [01.14]
E|-----------------------------------------------------------|
B|-----------------------------------------------------------|
G|--44444444-------------------------------------------------|
D|--44444444-22222222-66666666-22222222----------------------|
A|--22222222-22222222-66666666-22222222----------------------|
E|-----------00000000-44444444-00000000----------------------|    x2



Verse riff 2 [01.22]
E|-----------------------------------------------------------|
B|-----------------------------------------------------------|
G|--44444444-------------------------------------------------|
D|--44444444-44444444-66666666-22222222----------------------|
A|--22222222-44444444-66666666-22222222----------------------|
E|-----------22222222-44444444-00000000----------------------|    x2
PM  ...................................


Verse riff 2 [01.31]    
E|-----------------------------------------------------------|
B|-----------------------------------------------------------|
G|--44444444-66666666----------------------------------------|
D|--44444444-66666666-66666666-22222222----------------------|
A|--22222222-44444444-66666666-22222222----------------------|
E|--------------------44444444-00000000----------------------|    x1
PM  ...................................


Verse riff 2 [01.36]
E|-----------------------------------------------------------|
B|-----------------------------------------------------------|
G|--44444444-------------------------------------------------|
D|--44444444-44444444-66666666-2-----------------------------|
A|--22222222-44444444-66666666-2-----------------------------|
E|-----------22222222-44444444-0-----------------------------|    x1
PM  ............................



Chorus [01.40]
E|---------------------------------------------------------------------|
B|---------------------------------------------------------------------|
G|--4--4444-----------4--4444------------------------------------------|
D|--4--4444--4--4444--4--4444--4--4444---------------------------------|
A|--2--2222--4--4444--2--2222--4--4444---------------------------------|
E|-----------2--2222-----------2--2222---------------------------------|


Chorus [01.49]
E|---------------------------------------------------------------------|
B|---------------------------------------------------------------------|
G|---------------------------------------------------------------------|
D|---------------------------------------------------------------------|
A|----66-66-66-66-77-77-77-77----------66-66-66-66-77-77-77-77---------|
E|------7--7--7--7--7--7--7--7-----------7--7--7--7--7--7--7--7--------|
PM    ........................         ........................


Chorus [01.58]
E|-----------------------------------------------------------|
B|-----------------------------------------------------------|
G|--------4~-------------------------------------------------|
D|--4~-2~-4~---4~-2------------------------------------------|
A|--4~-2~-2~---4~-2------------------------------------------|
E|--2~-0~------2~-0------------------------------------------|



Bridge [2.05]
E|-----------------------------------------------------------|
B|-----------------------------------------------------------|
G|--4-4-4-4-4-4-4-4-4-4-4-4-4-4-4-4-4-4-4-4-4-4-4-4-4-4------|
D|--x-x-x-x-x-x-x-x-x-x-x-x-x-x-x-x-x-x-x-x-x-x-x-x-x-x------|
A|--2-2-2-2-2-2-2-2-2-2-2-2-2-2-2-2-2-2-2-2-2-2-2-2-2-2------|
E|-----------------------------------------------------------|


Bridge [2.14]
E|-----------------------------------------------------------------|
B|-----------------------------------------------------------------|
G|--8-8-8-8-8-8-8-8-6-6-6-6-6-6-6-6-9-9-9-9-9-9-9-9-8-8-8-8-8-8-8-8|
D|--x-x-x-x-x-x-x-x-x-x-x-x-x-x-x-x-x-x-x-x-x-x-x-x-x-x-x-x-x-x-x-x|
A|--6-6-6-6-6-6-6-6-4-4-4-4-4-4-4-4-7-7-7-7-7-7-7-7-6-6-6-6-6-6-6-6|
E|-----------------------------------------------------------------|


After Bridge [2.23]
E|-----------------------------------------------------------|
B|-----------------------------------------------------------|
G|--------------------------------4444-----------------------|
D|--66666666--44444444--22222222--4444-4444------------------|
A|--66666666--44444444--22222222--2222-4444------------------|
E|--44444444--22222222--00000000-------2222------------------|   x2



Chorus [02.42]
E|---------------------------------------------------------------------|
B|---------------------------------------------------------------------|
G|--4--4444-----------4--4444------------------------------------------|
D|--4--4444--4--4444--4--4444--4--4444---------------------------------|
A|--2--2222--4--4444--2--2222--4--4444---------------------------------|
E|-----------2--2222-----------2--2222---------------------------------|


Chorus [02.50]
E|---------------------------------------------------------------------|
B|---------------------------------------------------------------------|
G|---------------------------------------------------------------------|
D|---------------------------------------------------------------------|
A|----66-66-66-66-77-77-77-77----------66-66-66-66-77-77-77-77---------|
E|------7--7--7--7--7--7--7--7-----------7--7--7--7--7--7--7--7--------|
PM    ........................         ........................


Chorus [02.59]
E|-----------------------------------------------------------|
B|-----------------------------------------------------------|
G|--------4~---------4~--------------------------------------|
D|--4~-2~-4~---4~-2~-4~--------------------------------------|
A|--4~-2~-2~---4~-2~-2~--------------------------------------|
E|--2~-0~------2~-0~-----------------------------------------|
Tap to rate this tab
# A B C D E F G H I J K L M N O P Q R S T U V W X Y Z