Song name
# A B C D E F G H I J K L M N O P Q R S T U V W X Y Z

Blink 182 - Dammit Interlude tab

#----------------------------------PLEASE NOTE---------------------------------#
#This file is the author's own work and represents their interpretation of the #
#song. You may only use this file for private study, scholarship, or research. #
#------------------------------------------------------------------------------#


Dammit Interlude

Blink 182

by Brian S.

e||----------------------------------------------------------||
b||-5~----------3~-5---------5~---------3~-5~----3~-5~-------||
g||----5~-------------5~~~~-----5~------------3--------3~----||
d||-------5~~~~--------------------5~~~----------------------||
a||----------------------------------------------------------||
e||----------------------------------------------------------||

e||----------------------------------------------------------||
b||-5~----------3~-5---------5~---------3~-5~----3~-5~-------||
g||----5~-------------5~~~~-----5~------------3--------3~----||
d||-------5~~~~--------------------5~~~----------------------||
a||----------------------------------------------------------||
e||----------------------------------------------------------||
                                                          Well I guess this is growing up

e||-------------------------------------------------||
b||-------------------------------------------------||
g||-------------------------------------------------||
d||-----0-0-2-------0--0--2-----0--0--2-----2-2-0---||
a||-3-3----------------------0~---------------------||
e||------------3--3----------------------1----------||
Tap to rate this tab
 
# A B C D E F G H I J K L M N O P Q R S T U V W X Y Z