Song name
# A B C D E F G H I J K L M N O P Q R S T U V W X Y Z

Blink 182 - Disaster tab

This is my very first tab so it may not be 100% correct, this is just how I think the song is
played. If you have any corrections or comments, feel free to submit them below.

Disaster, written and composed by Mark Hoppus, Tom DeLonge, and Travis Barker. This song can
be found on the EP "Dogs Eating Dogs".

Tabbed by: crc.andrew.1024
Tuning: Standard

Intro
-----
Guitar 1 (This is played 4 times)
e|-x-x---x-x-x-x-x---x-x---x-x-x--|
B|-x-x---x-x-x-x-x---x-x---x-x-x--|
G|-1212--1212121212--1212--121212-|
D|-1010--1010101010--1010--101010-|
A|-x-x---x-x-x-x-x---x-x---x-x-x--|
E|-x-x---x-x-x-x-x---x-x---x-x-x--|

e|-x-x---x-x-x-x-x---x-x---x-x-x--|
B|-x-x---x-x-x-x-x---x-x---x-x-x--|
G|-1212--1212121210--1010--10109--|
D|-1010--1010101010--1010--101010-|
A|-x-x---x-x-x-x-x---x-x---x-x-x--|
E|-x-x---x-x-x-x-x---x-x---x-x-x--|

Guitar 2 (This is played twice in the background when Mark sings "Disaster, disaster.")
e|--------------------------------|
B|--------------------------------|
G|-5---5---5----------------------|
D|-5---5---5----------------------|
A|-3---3---3----------------------|
E|-3---3---3----------------------|

Verse 1 - (This is repeated throughout the entire verse) 
-------
e|----------------------|
B|----------------------|
G|-7-7-7--5-5-5--0-0----|
D|----------------------|
A|----------------------|
E|----------------------|

Chorus 1
--------
e|----------------------|----------------------|
B|----------------------|----------------------|
G|--5-------------------|----------------------| 
D|--5-------------------|--5-------------------|
A|--3-------------------|--5-------------------|
E|----------------------|--3-------------------| (Let these power chords ring)

e|----------------------|
B|----------------------|
G|-10-9------10-9-------|
D|-10-9-10---10-9-10-10-|
A|-8--7-10---8--7-10-10-|
E|------8---------8--8--| (Let the last power chord ring into the Fill)

Fill - (The Fill is pretty much the intro but with added power chords in the background)
----
Guitar 1 (This is played 2 times)
e|-x-x---x-x-x-x-x---x-x---x-x-x--|
B|-x-x---x-x-x-x-x---x-x---x-x-x--|
G|-1212--1212121212--1212--121212-|
D|-1010--1010101010--1010--101010-|
A|-x-x---x-x-x-x-x---x-x---x-x-x--|
E|-x-x---x-x-x-x-x---x-x---x-x-x--|

e|-x-x---x-x-x-x-x---x-x---x-x-x--|
B|-x-x---x-x-x-x-x---x-x---x-x-x--|
G|-1212--1212121210--1010--10109--|
D|-1010--1010101010--1010--101010-|
A|-x-x---x-x-x-x-x---x-x---x-x-x--|
E|-x-x---x-x-x-x-x---x-x---x-x-x--|

Guitar 2 (This is played in the background)
e|----------------------|----------------------|
B|----------------------|----------------------|
G|----------------------|--5-------------------| 
D|--3-------------------|--5-------------------|
A|--3-------------------|--3-------------------| (Let these power chords ring and the last power
E|--1-------------------|----------------------| chord ring into Verse 2)

Verse 2 - (This is repeated throughout the entire verse) 
-------
e|----------------------|
B|----------------------|
G|-7-7-7--5-5-5--0-0----|
D|----------------------|
A|----------------------|
E|----------------------|

Chorus 2
--------
e|----------------------|----------------------|
B|----------------------|----------------------|
G|--5-------------------|----------------------| 
D|--5-------------------|--5-------------------|
A|--3-------------------|--5-------------------|
E|----------------------|--3-------------------|

e|----------------------|----------------------|
B|----------------------|----------------------|
G|----------------------|--5-------------------| 
D|--3-------------------|--5-------------------|
A|--3-------------------|--3-------------------|
E|--1-------------------|----------------------|

e|----------------------|----------------------|
B|----------------------|----------------------|
G|----------------------|----------------------| 
D|--7-------------------|--5-------------------|
A|--7-------------------|--5-------------------|
E|--5-------------------|--3-------------------| (Let these power chords ring)

e|----------------------|
B|----------------------|
G|-10-9------10-9-------|
D|-10-9-10---10-9-10-10-|
A|-8--7-10---8--7-10-10-|
E|------8---------8--8--| (Let the last power chord ring)

Bridge
------
e|----------------------|
B|----------------------|
G|--5-------------------|
D|--5-------------------|
A|--3-------------------|
E|----------------------| 

(NOTE: Make sure the volume is reduced to zero before strumming the bridge. After 
strumming, gradually
add the volume back to default)

Chorus 3
--------
e|----------------------|----------------------|
B|----------------------|----------------------|
G|--5-------------------|----------------------| 
D|--5-------------------|--5-------------------|
A|--3-------------------|--5-------------------|
E|----------------------|--3-------------------|

e|----------------------|----------------------|
B|----------------------|----------------------|
G|----------------------|--5-------------------| 
D|--3-------------------|--5-------------------|
A|--3-------------------|--3-------------------|
E|--1-------------------|----------------------|

e|----------------------|----------------------|
B|----------------------|----------------------|
G|----------------------|----------------------| 
D|--7-------------------|--5-------------------|
A|--7-------------------|--5-------------------|
E|--5-------------------|--3-------------------| (Let these power chords ring)

Outro
-----
e|----------------------|
B|----------------------|
G|-10-9------10-9-------|
D|-10-9-10---10-9-10-10-|
A|-8--7-10---8--7-10-10-|
E|------8---------8--8--| (Let the last power chord ring)

Playing Order
-------------
Intro
Verse 1
Chorus 1
Fill
Verse 2
Chorus 2
Bridge
Chorus 3
Outro
Tap to rate this tab
# A B C D E F G H I J K L M N O P Q R S T U V W X Y Z