Song name
# A B C D E F G H I J K L M N O P Q R S T U V W X Y Z

Blink 182 - Boxing Day tab

There are different parts in this song, and I play it differently from time to
time, so I'll put them all here

Intro
----------------------------------|   *finger picking
-3------3--1------1p0-------------|
----0--------0--------0-----------| Something like that, I can't really
----------------------------------| figure it out perfectly
-2----2----0---0------------------|
----------------------------------|

Then

Guitar 1
---------------------------------------------------|
---0-0---0---0---0-0-----0-0-----------------------|
---0-0---0---0---0-0-----0-0-----------------------| (X4)
-5-----4---7---2-----0-----------------------------|
-----------------------3---------------------------|
---------------------------------------------------|

Guitar 2
---------------------------------------------------|
--12--12--12--12/13--12----------------------------|
--12--12--12---X/X---X-----------------------------| (X4) Tom played it this
---X--X----X---9/10--9-----------------------------|      way live in
--10--9----X---------------------------------------|      Australia
----------12---------------------------------------|

Verse is the same as the intro

Pre chorus
--------------------------------------------------|
-12--13--12--13-----------------------------------|
-12--12--12--12-----------------------------------| (X2)
--X---X---X---X-----------------------------------|
-10---X---X---X-----------------------------------|
-----10--12--10-----------------------------------|

Chorus
-3--3--3--3-------|
-3--3--3--3-------|
-0--0--0--0-------| (X2)
-0--2--2--2-------|
-2--3--2--3-------|
-3-----0----------|

Then
---------------------------------------------------|
--12--12--12--12/13--12----------------------------|
--12--12--12---X/X---X-----------------------------| (X2)
---X--X----X---9/10--9-----------------------------|
--10--9----X---------------------------------------|
----------12---------------------------------------|

Verse (same thing as the first one)

Pre chorus (same thing as the first one)

Chorus (same thing as the first one)

Bridge
---------------------------------------------------|
--12--12--12--12/13--12----------------------------|
--12--12--12---X/X---X-----------------------------| (X4)
---X--X----X---9/10--9-----------------------------|
--10--9----X---------------------------------------|
----------12---------------------------------------|

there is part too, but it's not a guitar
-7-7-8-5-5-7-3-10-10-8-7---------------------------|
---------------------------------------------------|
---------------------------------------------------| (X4)
---------------------------------------------------|
---------------------------------------------------|
---------------------------------------------------|

Chorus (Same thing as the first one)

Outro (same thing as the chorus)

and then you play the finger picking part.

that's it!you can figure out the strumming!



There is a way i like too play this song too when I only have 1 guitar. I play the 
verses this way

-------------------------|
-3--3--3--3--3-3--3------|
-0--0--2--0--0-0--0------|
-0--0--2--X--X-X--X------|
-X--X--0--2--2/3--2------|
-3--2--X--0--X-X--X------|

And the pre chorus this way

----2-----2----------------|
-3--3--3--3----------------|
-0--2--0--2----------------|
-0--0--X--0----------------|
-X-----2-------------------|
-3-----0-------------------|
Tap to rate this tab
# A B C D E F G H I J K L M N O P Q R S T U V W X Y Z