Song name
# A B C D E F G H I J K L M N O P Q R S T U V W X Y Z

Blink 182 - When I Was Young tab

Intro

-------------------------------|
-------------------------------|
-----11------------8-----------|
-8/9----9-8/9--8/9---11-8/9----|
-------------------------------|
-------------------------------|

Verse

------------------------------|
-------------------------7----|
-8/4-4-4--8/4-4-4--4/6-6-6----| (X3) *when you listen closely, you can hear
-X/X-X-X--X/X-X-X--X/X-X-X----|       the note on the B string at the end
-6/2-2-2--6/2-2-2--2/4-4-4----|
------------------------------|

Chorus

------------------------------|
------------------------------|
-4---6---8--------------------|
-4-4-6-6-8-2------------------|  (X2)
-2-4-4-6-6-2------------------|
---2---4---0------------------|

verse (X3)

Chorus (X4)

Bridge

-----------------------------|
-------4--2------------------|
-8--9--4--4------------------|
-9--9--X--X------------------|  (X2)
-6--7--2--4------------------|
-----------------------------|

Chorus (4X)

that's it, you can figure the strumming out!
Tap to rate this tab
# A B C D E F G H I J K L M N O P Q R S T U V W X Y Z