Song name
# A B C D E F G H I J K L M N O P Q R S T U V W X Y Z

Blink 182 - Dogs Eating Dogs tab

Intro :
E-0-0-0-0-0-0-0-3-0-0-0-0-0-0-0-0            ----|
B-1-0-1-3-1-0-1-0-1-0-1-3-1-0-1-0            ----|
G-2-2-2-2-2-2-0-0-2-2-2-2-2-2-0-0   (X2)     -2--|    Let it ring
D-2-2-2-2-2-2-2-0-2-2-2-2-2-2-2-2            -2--|
A-0-0-0-0-0-0-3-2-0-0-0-0-0-0-3-2            -0--|
E-X-X-X-X-X-X-X-3-X-X-X-X-X-X-X-0            ----|

Verse :

E--------------------|
B--------------------|
G-2--5-----2--5------| (X2)
D-2--5--5--2--5--2---|
A-0--3--5--0--3--2---|
E-------3--------0---|

Pre chorus :

E------------------|
B------------------|
G------------------|
D----5--------5--7-|
A-3--3--5--3--3--5-|
E-1-----3--1-------|

Chorus :

E----------------------------|
B----------------------------|
G-5-----2--------------------|
D-5--3--2--5--3--------------|
A-3--3--0--5--3--------------|
E----1-----3--1--------------|

Intro

Verse

Pre chorus

Chorus

Bridge :
Part 1 (I Know its not guitar but I like to play it)
E-8--7--8--8--7--3--1--0---------------------------|
B--------------------------------------------------|
G--------------------------------------------------|
D--------------------------------------------------|
A--------------------------------------------------|
E--------------------------------------------------|

Part 2
E------------------------0--|
B-------1--------3----1-----|
G----2--------2-------------|
D---------------------------|
A-0--------0-------3--------|
E---------------------------|

E-----1-0--------------0-1-------------------------|
B---1---------1-0---3------1-3-1-0-----------------|
G-----------0--------------------------------------|
D--------------------------------------------------|
A---------3-------3--------------------------------|
E-1------------------------------------------------|

Then Pre chorus

Chorus

Intro

That's it, you can figure the strumming out!
Tap to rate this tab
# A B C D E F G H I J K L M N O P Q R S T U V W X Y Z