Song name
# A B C D E F G H I J K L M N O P Q R S T U V W X Y Z

Blink 182 - Lifes So Boring tab

Tuning is standard, or down half a step depending on what version you're playing (the 
song seems to come in a range of pitches)

Verse:

E|-----------------|
B|-----------------|
G|-----0-----0-----|
D|--5-----5-----5--|
A|-----------------|
E|-----------------|

Pre-Chorus:

E|---------------|
B|---------------|
G|---------------|
D|--5--7--9--10--|
A|--5--7--9--10--|
E|--3--5--7--8---|

Chorus:

E|--------------------|
B|--------------------|
G|-----7-----7--5--4--|
D|--5-----5-----------|
A|--------------------|
E|--------------------|

OR

E|--------------------|
B|-----3-----3--1--0--|
G|--0-----0-----------|
D|--------------------|
A|--------------------|
E|--------------------|
Tap to rate this tab
# A B C D E F G H I J K L M N O P Q R S T U V W X Y Z