Song name
# A B C D E F G H I J K L M N O P Q R S T U V W X Y Z

Blink 182 - All The Small Things tab

All The Small Things
Artist: Blink-182
Album: Enema Of The State (1999)
Tabbed by: Unicorn287 (Rhea)
Email- extraemail287@gmail.com

Tuning: Standard (EBGDAE)

So I've tabbed this song so that you can just hit autoscroll and start playing, enjoy! :D


Intro~

E|------------------------------------------------|
B|------------------66666666----------------------|
G|---------55555555-55555555----------------------|
D|--5-3----55555555-55555555-555555-5------333----|
A|--5-3----33333333-33333333-555555-5------333----|
E|--3-1----------------------333333-3-000--111----|
                                      ...

Play twice, but strum last chord only twice the second time



Verse 1~

All the small things, truth cares, truth brings...
E|-----------------------------------------|
B|-----------------------------------------|
G|-----------------------------------------|  (x4)
D|--55555555-------------------------------|
A|--33333333-55555555-33333333-55555555----|
E|-----------33333333-11111111-33333333----|
    ........ ........ ........ ........

Pre-Chorus~

Say it ain't so, I will not go, turn the lights off, carry me home
E|-------------------------------------------------|
B|-------------------------------------------------|
G|-5~-----------------5----------------------------|
D|-5~-----------------5----------------------------|
A|-3~-----------------3----------------------------|
E|-------------------------------------------------|

Light strum on the second chord

Chorus~

Na na na na na na na na na na...
E|-------------------------------------------------|
B|-------------------------------------------------|
G|--5-5-5-5-5-5-5-5-55-----------------------------|
D|--5-5-5-5-5-5-5-5-55---5-5-5-5-5-5-5-5-33--------|   (x2)
A|--3-3-3-3-3-3-3-3-33---5-5-5-5-5-5-5-5-33--------|
E|-----------------------3-3-3-3-3-3-3-3-11--------|


Interlude

E|-------------------------------------------------|
B|-------------------------------------------------|
G|-55555555-10-10-10-10-9999-77777777-7-----555----|
D|-55555555-10-10-10-10-9999-77777777-7-----555----|  (x2)
A|-33333333--8--8--8--8-7777-55555555-5-000-333----|
E|-------------------------------------------------|
                                        ...

There is no rest between each strum on the second chord, I just separated the 10's so 
that it's easier to read :)

Verse 2~

Late night, come home...
E|------------------------------------------|
B|------------------------------------------|
G|------------------------------------------|   (x2)
D|--55555555--------------------------------|
A|--33333333-55555555-33333333-55555555-----|
E|-----------33333333-11111111-33333333-----|
    ........ ........ ........ ........



Pre-Chorus~

Say it ain't so, I will not go, turn the lights off, carry me home
E|-------------------------------------------------|
B|-------------------------------------------------|
G|-5~-----------------5----------------------------|
D|-5~-----------------5----------------------------|
A|-3~-----------------3----------------------------|
E|-------------------------------------------------|


Chorus~

Na na na na na na na na na na...
E|-------------------------------------------------|
B|-------------------------------------------------|
G|--5-5-5-5-5-5-5-5-55-----------------------------|
D|--5-5-5-5-5-5-5-5-55---5-5-5-5-5-5-5-5-33--------|   (x2)
A|--3-3-3-3-3-3-3-3-33---5-5-5-5-5-5-5-5-33--------|
E|-----------------------3-3-3-3-3-3-3-3-11--------|


Bridge~

E|-----------|
B|-----------|
G|-5----5--7-|
D|-5----5--7-|
A|-3----3--5-|
E|-----------|

This part is only played once at the start, but if you're using two guitars, then repeat 
throughout the bridge.


E|----------------------------------------------------|
B|----------------------------------------------------|
G|-5--5--5--5--5--5--5--5--5--5--5--5--4--4--4--4-----|
D|---5--5--5--5--5--5--5--5--5--5--5--5--5--5--5--5---|  (x3)
A|----------------------------------------------------|
E|----------------------------------------------------|
   ................................................

Final Chorus~

Say it ain't so, I will not go, turn the lights off, carry me home
E|---------------------------------------------|
B|---------------------------------------------|
G|--5-5-5-5-5-5-5-5-55-------------------------|
D|--5-5-5-5-5-5-5-5-55---5-5-5-5-5-5-5-5-33----|   (x3)
A|--3-3-3-3-3-3-3-3-33---5-5-5-5-5-5-5-5-33----|
E|-----------------------3-3-3-3-3-3-3-3-11----|


Turn the lights off, carry me home
E|------------------|
B|------------------|
G|------------------|
D|-------3-------3--|
A|-------3-------3--|
E|--1-1--1--1-1--1--|
    . .     . .

Keep your head still, I'll be your thrill
E|---------------------------------------------|
B|---------------------------------------------|
G|--5-5-5-5-5-5-5-5-55-------------------------|
D|--5-5-5-5-5-5-5-5-55---5-5-5-5-5-5-5-5-33----|
A|--3-3-3-3-3-3-3-3-33---5-5-5-5-5-5-5-5-33----|
E|-----------------------3-3-3-3-3-3-3-3-11----|


The night will go on, the night will go on, my little windmill
E|-----------------------------------|
B|-----------------------------------|
G|-----------------------------------|
D|-------3-------3-------3-------3~--|
A|-------3-------3-------3-------3~--|
E|--1-1--1--1-1--1--1-1--1--1-1--1~--|
    . .     . .     . .     . .



   .  -Palm mute

   ~ -Vibrato (allow note to ring)


I'm sorry if there are any mistakes, this is my first tab :)
Comments are appreciated, any corrections and stuff would be helpful and please rate!
Tap to rate this tab
# A B C D E F G H I J K L M N O P Q R S T U V W X Y Z