Song name
# A B C D E F G H I J K L M N O P Q R S T U V W X Y Z

Blink 182 - What Went Wrong chords

Highlighted       Show chord diagrams
tabbed by jasper
this is the way I play it.

what went wrong -  blink 182

standard tuning

chords used

 A F#  Dsus E low E high
|0| 0 | 0  |  0  |  0  |
|2| 0 | 3  |  0  |  0  |
|2| 4 | 2  |  1  |  10 |
|2| 4 | 0  |  2  |  10 |
|0| 4 | x  |  2  |  8  |
|x| x | x  |  0  |  x  |

E low is for the chorus and bridge, E high is for the verses

intro

e|--------|
B|--0-----|
G|----2---|
D|2-------|
A|--------|
E|--------|x2

A F# Dsus

Verse
 
A F# E Dsus

chorus

A E F# Dsus

solo

e|-----0---------------0-----------|----0---------------0-----------|
B|-------------2---------------2---|------------2---------------2---|
G|---2---2---2---2---2---2---2---2-|--2---2---2---2---2---2---2---2-|
D|---------------------------------|0-------0-------0-------0-------|
A|---------------------------------|--------------------------------|
E|-2-------2-------2-------2-------|--------------------------------|

e|----0---------------0-----------|------------------------|
B|------------2---------------2---|----2-----2-----2-------|
G|--2---2---2---2---2---2---2---2-|--2-----2-----2---------|
D|--------------------------------|0-----0-----0------*----|
A|0-------0-------2-------2-------|------------------------|
E|--------------------------------|------------------------|

* start strumming here

bridge

A F# Dsus x4 E Dsus

End 

A F# Dsus x8 

Dsus
Tap to rate this tab
# A B C D E F G H I J K L M N O P Q R S T U V W X Y Z