Guitaretab - guitar tabs
Song name
# A B C D E F G H I J K L M N O P Q R S T U V W X Y Z

Blink 182 - Buddha tab

album:buddha
artist:blink 182
tabbed by :rancidpunx

1. Carousel
2. T.V.
3. Strings
4. Fentoozler
5. Time
6. Romeo and Rebecca
7. 21 Days
8. Sometimes
9. Point Of View
10. My Pet Sally
11. Reebok Commercial
12. Toast and Bananas
13. The Girl Next Door
14. Don't


1. Carousel
--------------------------------------------------------------------- 
--------------------------------------------------------------------- 
---------------------------------------------------------------------  1X
-------------------------------------------4-5-5-5-4-4-4------------- 
-12-12-12-10-10-10-9--12-12-12-10-10-10-9----------------5--5-5-5-5-- 
--------------------------------------------------------------------- 


-------------------------------------------------------------- 
-------------------------------------------------------------- 
-------------------------------------------------------------- 
------------------------------------4-5-5-5-4-4-4-------------  1X
-10-10-10-9-9-9-7--10-10-10-9-9-9-7---------------5--5-5-5-5-- 
-------------------------------------------------------------- 


--------------------------------------------------------------------- 
--------------------------------------------------------------------- 
--------------------------------------------------------------------- 
-------------------------------------------4-5-5-5-4-4-4-------------  1X
-12-12-12-10-10-10-9--12-12-12-10-10-10-9----------------5--5-5-5-5-- 
--------------------------------------------------------------------- 


--------------------------------------------------------------------- 
--------------------------------------------------------------------- 
---------------------------------------------------------------------  1X
------------------------------------4-5-5-5-4-4-4-------------------- 
-10-10-10-9-9-9-7--10-10-10-9-9-9-7---------------5--5-5-5-5----9-10- 
--------------------------------------------------------------------- 


--------------------------------------------------------------------------
--------------------------------------------------------------------------
--------------------------------------------------------------------------  2X
----4-4-5-7-5-4-----------------------------------------------------------
--5-------------5-----4-4-5-7-5-4------7-7-9-10-10-9-9----5-5---5---5-----
-------------------5--------------5--7------------------3-----3---3-------

---------------------------- 
---------------------------- 
----------------------------  4X
-77777---------------------- 
-55555--77777--99999--55555- 
--------55555--77777--33333- 

------------------------------------------------ 
------------------------------------------------ 
-7--7-7-7-7-------------------------------------  2X
-7--7-7-7-7--7--7-7-7-7--9--9-9-9-9--5--5-5-5-5-   
-5--5-5-5-5--7--7-7-7-7--9--9-9-9-9--5--5-5-5-5-  
-------------5--5-5-5-5--7--7-7-7-7--3--3-3-3-3- 
 


-------------------- 
-------------------- 
--------------------  2X
-4---2---0-2-0------ 
---------------4-0-- 
-------------------- 
 

----------------------------------------------------------- 
----------------------------------------------------------- 
-----------------------------------------------------------  4X
4-4-4-4-4-4-4-4-2-2-2-2-2-2-2-2-4-4-4-4-4-4-4-4-0-2-0------ 
------------------------------------------------------0-4-- 
----------------------------------------------------------- 
 

------------------------------------------------------- 
------------------------------------------------------- 
-7---7-7-7-7-------------------------------------------  4X
-7---7-7-7-7---7---7-7-7-7---9---9-9-9-9---5---5-5-5-5- 
-5---5-5-5-5---7---7-7-7-7---9---9-9-9-9---5---5-5-5-5- 
---------------5---5-5-5-5---7---7-7-7-7---3---3-3-3-3- 
 

---------------------------------------- 
---------------------------------------- 
--7-7-7-7---9-9-9-9---------------------  4X
--7-7-7-7---9-9-9-9---7-7-7-7---5-5-5-5- 
--5-5-5-5---7-7-7-7---7-7-7-7---5-5-5-5- 
----------------------5-5-5-5---3-3-3-3- 
 

----------------------------------------------------------- 
----------------------------------------------------------- 
-----------------------------------------------------------  2X
4-4-4-4-4-4-4-4-2-2-2-2-2-2-2-2-4-4-4-4-4-4-4-4-0-0-2-0---- 
--------------------------------------------------------4-- 
----------------------------------------------------------- 
 

------------------------------------------------------- 
------------------------------------------------------- 
-7---7-7-7-7-------------------------------------------  2X
-7---7-7-7-7---7---7-7-7-7---9---9-9-9-9---5---5-5-5-5- 
-5---5-5-5-5---7---7-7-7-7---9---9-9-9-9---5---5-5-5-5- 
---------------5---5-5-5-5---7---7-7-7-7---3---3-3-3-3- 


------------------------------ 
------------------------------ 
------------------------------  1X
----4-4--4-4-4----------------
-5----------------4-4--4-4-4-- 
---------------5-------------- 

-------------------------------------------------------------- 
-------------------------------------------------------------- 
-------------------------------------------------------------- 4X
----4-5-7-5-4------------------------------------------------- 
--5-----------5----4-5-7-5-4------6-7-9-7-6------2-3-5-3-2---- 
-----------------5-----------5--7-----------7--3-----------3-- 


---------------------------------------- ---
---------------------------------------- ---
--7-7-7-7---9-9-9-9--------------------- ---  4X
--7-7-7-7---9-9-9-9---7-7-7-7---5-5-5-5- -7- 
--5-5-5-5---7-7-7-7---7-7-7-7---5-5-5-5- -7- 
----------------------5-5-5-5---3-3-3-3- -5- 

2. T.V.	
INTRO
e|------------------------------------------------------------------|
B|------------------------------------------------------------------|
G|------------------------------------------------------------------|
D|------------------------------------------------------------------|
A|-----3-----3---3-/----8-----8---8-/-----3-----3---3-/-----8---8-8-|
E|-1-1---1-1---1---/-6-6---6-6--6---/-1-1---1-1---1---/-6-6--6-6-6--|

e|-------------------------------------------------------------------|
B|-------------------------------------------------------------------|
G|-------------------------------------------------------------------|
D|-------------------------------------------------------------------|
A|----3----3-3-/----8---8-8-/------15------15---15-/-----8-----8---8-|
E|-1-1--1-1-1--/-6-6-6-6-6--/-13-13---13-13---13---/-6-6---6-6---6---|

	RIFF 1
e|-------------------------------------|
B|-------------------------------------|
G|-------------------------------------|
D|----------------------------------88-|
A|-3333-8888-5555-8888-3333-8888-55-88-|
E|-1111-6666-3333-6666-1111-6666-33-66-|

	RIFF 2
e|-------------------|
B|-------------------|
G|-------------------|
D|-33333333-88888888-|
A|-33333333-88888888-|
E|-11111111-66666666-|

	RIFF 3
e|---------------------|
B|---------------------|
G|---------------------|
D|-3333-5555-7777-8888-|
A|-3333-5555-7777-8888-|
E|-1111-3333-5555-6666-|

	VERSE
e|---------------------|
B|---------------------|
G|---------------------|
D|-333-3-1-0-888-8-6-5-|
A|-333-------888-------|
E|-111-------666-------|

	CHORUS
e|-------------------------------|
B|-------------------------6-4-3-|
G|-------33333-------33333-------|
D|-33333-33333-55555-33333-------|
A|-33333-11111-55555-11111-------|
E|-11111-------33333-------------|

	SOLO
e|--------------------------------------------------|
B|-----5-----5-----6-9-7-----4-7-5----7-5-0-0-------|
G|--------------------------------------------7-5-0-|
D|--------------------------------------------------|
A|-3-3---3-3---6-6-------0-0-------0-0--------------|
E|--------------------------------------------------|

order
INTRO
RIFF 1
RIFF 2 x4
RIFF 3
VERSE x4
CHORUS x4
VERSE x4
CHORUS x4
SOLO x2
RIFF 2 x4
RIFF 3


3. Strings
Intro:

e|----------------------------|
B|----------------------------|
G|-7-----9--12----------------|
D|-7--7--9--12----------------|
A|-5--7--7--10----------------|
E|----5-----------------------|


Verses:

e|---------------------------------|
B|---------------------------------|
G|-7---7-------7-----7-----7-----7-|
D|--7---6--4-5---4-5---4-5---4-5---|
A|---------------------------------|
E|---------------------------------|


Chorus:

e|----------------------------|
B|----------------------------|
G|-55555555-------------------|
D|-55555555-33333333----------|Guitar 1
A|-33333333-33333333----------|
E|----------11111111----------|


e|----------------------------|
B|----------------------------|
G|-12-12-12-12--10-10--9-9----|
D|--x--x--x--x---x--x--x-x----|Guitar 2
A|-10-10-10-10---8--8--7-7----|
E|----------------------------|


End on C for interlude:

e|---------------------------------------------------------------|
B|---------------------------------------------------------------|
G|---------------------------------------------------------------|
D|-------------------------7-7-5-4-------5-4---5-4---5-4---5-4---|
A|-5-4-5-4-5-7-5-4-5-4-5-7---------7-5-4-----5-----5-----5-----5-|
E|---------------------------------------------------------------|


e|---------------------------------------------------------------------------
B|---------------------------------------------------------------------------
G|-7-6---7-6---7-6---7-6---(don't know how many x)--7-7-6--------------------
D|-----7-----7-----7-----7--------------------------------7-5-5-4-5-5-4-2-0--
A|---------------------------------------------------------------------------
E|---------------------------------------------------------------------------


4. Fentoozler			
intro
e|--------------------------------------------------------|
B|--------------------------------------------------------|
G|--------------------------------------------------------|
D|----------111111111111111111----------99999999----------|
A|-99999999--9-9-9-9-9-9-9-9-9-99999999-77777777-99999999-|
E|-77777777--------------------77777777----------77777777-|

e|--------------------------------------------------------|
B|--------------------------------------------------------|
G|--------------------------------------------------------|
D|-66666666-99999999-9-8-6--------------------------------|
A|-44444444-77777777-7-6-4--------------------------------|
E|--------------------------------------------------------|

			Chorus - X=heavy struming 
e|--------------------------------------------------------|
B|--------------------------------------------------------|
G|--------------------------------------------------------|
D|----------11XXXXXXXXXXXXXXXX----------9XXXXXXX----------|
A|-9XXXXXXX--9-X-X-X-X-X-X-X-X-9XXXXXXX-7XXXXXXX-9XXXXXXX-|
E|-7XXXXXXX--------------------7XXXXXXX----------7XXXXXXX-|

e|--------------------------------------------------------|
B|--------------------------------------------------------|
G|--------------------------------------------------------|
D|-6XXXXXXX-9XXXXXXX-9-8-6--------------------------------|
A|-4XXXXXXX-7XXXXXXX-7-6-4--------------------------------|
E|--------------------------------------------------------|

			Verse 
e|--------------------------------------------------------|
B|--------------------------------------------------------|
G|--------------------------------------------------------|
D|-66666666-99999999----------1111111111111111------------|
A|-44444444-77777777-99999999--9-9-9-9-9-9-9-9------------|
E|-------------------77777777-----------------------------|

			Outro
e|--------------------------------------------------------|
B|--------------------------------------------------------|
G|--------------------------------------------------------|
D|------6------11------99---------------------------------|
A|-9999-4-9999--9-9999-77---------------------------------|
E|-7777---7777----7777------------------------------------|

	Order
intro x2
chorus x2
verse x2
intro x2
chorus x2
verse x2
intro x2
verse x2
outro x1

5. Time
Intro
----------------------------------------------
----------------------------------------------
----------------------------------------------
----------8-s9--999-s10-s11--6666s7--777------
-7--777---6-s7--777-s8--s9---4444s5--555-6s7--
-5--555----------------------------------4s5--

---------------------------------------------
---------------------------------------------
---------------------------------------------
---------8-s9--999-s10-s11-111111--7777777---
---777---6-s7--777-s8--s9---9-9-9--5555555---
---555---------------------------------------

ska riff
-555-55xxx5-777-55xxx5--555-55xxx5-777777777-
-555-77xxx7-999-66xxx6--555-77xxx7-999999999-
-666-77xxx7-999-77xxx7--666-77xxx7-999999999-
-777-77xxx7-999-77xxx7--777-77xxx7-999999999-
-777-55xxx5-777-55xxx5--777-55xxx5-777777777-
-555--------------------555------------------

distortion riff (number of strums not
		noted, listen to song to
		get it down)
----------------------
----------------------
----------------------
----8-9--10--11--6-7--
--7-6-7---8---9--4-5--
--5-------------------

Verse
--------------------------------
--------------------------------
--------------------------------
----999-----777----999----7-6-4-
-77-777--44-555-77-777-44-5-4-2-
-55------22-----55-----22-------

Chorus
 Same chords as intro. Listen to song to get
 strum pattern.

ending riff
------------------
------------------
------------------
---8-9-6-7--7-6-4-
-7-6-7-4-5--5-4-2-
-5----------------


6. Romeo and Rebecca
Guitar 1:  Intro (Palm-Muted)  (X6)

e-------------------------------------------------------------------
B-------------------------------------------------------------------
G-------------------------------------------------------------------
D--2-2-2-2-2-2-2-2-4-4-4-4-4-4-4-4-6-6-6-6-6-6-6-6-4-4-4-4-4-4-4-4--
A--0-0-0-0-0-0-0-0-2-2-2-2-2-2-2-2-4-4-4-4-4-4-4-4-2-2-2-2-2-2-2-2--
E-------------------------------------------------------------------

Guitar 2:  Intro pt. 1  (X2)

e---------------------------------------------------
B---------------------------------------------------
G---------------------------------------------------
D----7--7-6----------------------7--7-6-------------
A--0---0----7-7-7-7-7-7-7-----44---4----7-5--5-4-4--
E---------------------------------------------------

Intro pt. 2  (X1)

e----------------------------------------------------------------------
B----------------------------------------------------------------------
G----------------------------------------------------------------------
D--6-6-6-7-7-7-6-7-9-9-9-7-7-7-6-7-9-9-9-11-11-12-12-11-11-11-9-9-7-7-6
A----------------------------------------------------------------------
E----------------------------------------------------------------------

Intro pt. 2 cont.  

e------------------------------------------------------------------
B------------------------------------------------------------------
G------------------------------------------------------------------
D--7-6-6-7-6-6-7-9-9-9-9-9-9-9-9-9--7-7-7-6-6----------------------
A---------------------------------------------7-7-5-5-4-4-5-5-4-4--
E------------------------------------------------------------------

Bass Intro (try playing it on guitar)  (X2)

e------------------------------------------------------------
B------------------------------------------------------------
G------------------------------------------------------------
D------2--2---------2---4-2--2-----2--4-2--2----4---4-4-2-2--
A--0-0---0--(0)-2-2---2----2---4-4--4----4---2-2--2----------
E------------------------------------------------------------

Verse 1 (Palm-muted)  (X4)

e-------------------------------------------------------------------
B-------------------------------------------------------------------
G-------------------------------------------------------------------
D--2-2-2-2-2-2-2-2-4-4-4-4-4-4-4-4-6-6-6-6-6-6-6-6-4-4-4-4-4-4-4-4--
A--0-0-0-0-0-0-0-0-2-2-2-2-2-2-2-2-4-4-4-4-4-4-4-4-2-2-2-2-2-2-2-2--
E-------------------------------------------------------------------

Bridge (X2)

e-----------------------------------
B-----------------------------------
G----------9-9-9-9---------7-7-7-7--
D--7-7-7-7-9-9-9-9-4-4-4-4-7-7-7-7--
A--7-7-7-7-7-7-7-7-4-4-4-4-5-5-5-5--
E--5-5-5-5---------2-2-2-2----------

Verse 2  (X4)

e-------------------------------------------------------------------
B-------------------------------------------------------------------
G--2-2-2-2-2-2-2-2-4-4-4-4-4-4-4-4-6-6-6-6-6-6-6-6-4-4-4-4-4-4-4-4--
D--2-2-2-2-2-2-2-2-4-4-4-4-4-4-4-4-6-6-6-6-6-6-6-6-4-4-4-4-4-4-4-4--
A--0-0-0-0-0-0-0-0-2-2-2-2-2-2-2-2-4-4-4-4-4-4-4-4-2-2-2-2-2-2-2-2--
E-------------------------------------------------------------------

Bridge  (X2)

Interlude  (X2)

e------------------------------------
B------------------------------------
G------------------------------------
D--7-7-7p9-2-2-2--11-11-11p12-9-9-9--
A--7-7-7p9-2-2-2--11-11-11p12-9-9-9--
E--5-5-5p7-0-0-0--9--9--9p10--7-7-7--

Interlude pt. 2  (X4)

e-----------------------------------
B-----------------------------------
G--2-2-2-2-4-4-4-4-6-6-6-6-7-7-7-7--
D--2-2-2-2-4-4-4-4-6-6-6-6-7-7-7-7--
A--0-0-0-0-2-2-2-2-4-4-4-4-5-5-5-5--
E-----------------------------------

Outro  (X2)

e----------------------------------
B----------------------------------
G----------------------------------
D--7-7-7--2-2-2--11-11-11-9-9-9----
A--7-7-7--2-2-2--11-11-11-9-9-9----
E--5-5-5--0-0-0--9--9--9--7-7-7----

End on A5

(e----
 B----
 G-2--
 D-2--
 A-0--
 E----)

7. 21 Days
CHORDS: 
       D5    G5   f#5   E5    E5    Eb5 
e------------------------------------ 
b------------------------------------ 
g-----7---------------9----2----6--- 
d-----7----5----4----9----2----6--- 
a-----5----5----4----7----0----4--- 
e----------3----2------------------- 

INTRO: 
a:-------5 
adding the rest of G5 sounds good,but this is how its played on the cd 

RIFF 1: 
starts of with a clean sound (x4) then distorted (x2) 
e-------------------------------------------------------- 
b-------------------------------------------------------- 
g--2s11--7--7--11--11--------------2s11--9--9--7--7- 
d-------------------------------------------------------- 
a-------------------------------------------------------- 
e-------------------------------------------------------- 

VERSE 1: 
D5 
G5                            F#5 
My mind wanders as i'm trying not to fall in love  with you 
D5                                                G5                 E5 
Coz every time I awake I ponder on my mistakes of 
D5                                        G5                        F#5 
What I said,it is always my esteem that i sure loose 
D5                                    G5 
E5 
Playing those stupid games,as I always end up chasing you 

Riff 1x2 
E5            G5                Riff2 x2            RIFF 2 
I can't help myself anymore
e------------------------------ 
b------------------------------ 
g---7--7--7--7--7--7--7--7----- 
d---7--7--7-----7--7--7-------- 
a---5--5--5-----5--5--5-------- 
e------------------------------ 
E5 
G5                                                   riff 2 
Rehearsing my thoughts as i'm too scared to come to your door 
E5                   G5                                riff 2 
I pushed it all inside just too stand next to you 
E5                            G5                        D5-Eb5-E5 
Now you won't talk to me for something that i didn't do 
D5(play once and let it fade out) 
It's not gonna work 

RIFF 3:(bass guitar) 
e--------------------------------------------- 
b--------------------------------------------- 
g--------------------------------------------- 
d--------------------------------------------- 
a--5-5-5-5-5-5-5-5-7-7-7-7-9-9-9-9-5-5-5------ 
e--------------------------------------------- 

VERSE 2: 

Riff 3 
And i'm trying not to think of you 
I'm all confused as i think of the things that i would do 
I'm all shook up as i get all nervous inside 
My emothios are something that i wil always hide away 

OUTRO: 
again starts clean(x2)then distorted(x8) 
e------------------------------------------------------- 
b-------------------------------------------------------- 
g--7--9--11--12--11--9-----------7--9--11--9--7--7-- 
d------------------------------------------------------- 
a-------------------------------------------------------- 
e-------------------------------------------------------- 

8. Sometimes
INTRO

e]---------------------------------------------------------
b]---------------------------------------------------------
g]------5555------7777------5555------7777-----------------
d]-2222-5555-5555-7777-2222-5555-5555-7777-----------------
a]-2222-3333-5555-5555-2222-3333-5555-5555-----------------
e]-0000------3333------0000------3333----------------------

e]---------------------------------------------------------
b]---------------------------------------------------------
g]-44447-77754----45754-444h5p0-44447-77754------54-5p40---
d]------------7-57-----7-------------------575757--7-------
a]---------------------------------------------------------
e]---------------------------------------------------------

Verse

e]---------------------------------------------------------
b]---------------------------------------------------------
g]------5555------7777------5555------7777-----------------
d]-2222-5555-5555-7777-2222-5555-5555-7777----------------- (x2)
a]-2222-3333-5555-5555-2222-3333-5555-5555-----------------
e]-0000------3333------0000------3333----------------------

CHORUS

e]--------------------------------------------------------------------------
b]--------------------------------------------------------------------------
g]-55555555-------------------55555555-55555555-------------------55555555--
d]-55555555-55555555-33333333-55555555-55555555-55555555-33333333-55555555--
a]-33333333-55555555-33333333-33333333-33333333-55555555-33333333-33333333--
e]----------33333333-11111111-------------------33333333-11111111-----------

riff thing
[ Tab from: http://www.guitaretab.com/b/blink-182/47521.html ]
e]-----------------------------------------------------------
b]-----------------------------------------------------------
g]-44447-77754----45754-444h5p0-44447-77754------54-5p40-----
d]------------7-57-----7-------------------575757--7---------
a]-----------------------------------------------------------
e]-----------------------------------------------------------

Verse

e]---------------------------------------------------------
b]---------------------------------------------------------
g]------5555------7777------5555------7777-----------------
d]-2222-5555-5555-7777-2222-5555-5555-7777----------------- (x2)
a]-2222-3333-5555-5555-2222-3333-5555-5555-----------------
e]-0000------3333------0000------3333----------------------

CHORUS

e]--------------------------------------------------------------------------
b]--------------------------------------------------------------------------
g]-55555555-------------------55555555-55555555-------------------55555555--
d]-55555555-55555555-33333333-55555555-55555555-55555555-33333333-55555555--
a]-33333333-55555555-33333333-33333333-33333333-55555555-33333333-33333333--
e]----------33333333-11111111-------------------33333333-11111111-----------

OUTRO

e]---------------------------------------------------------
b]---------------------------------------------------------
g]------5555------7777------5555------7777-----------------
d]-2222-5555-5555-7777-2222-5555-5555-7777-----------------
a]-2222-3333-5555-5555-2222-3333-5555-5555-----------------
e]-0000------3333------0000------3333----------------------

9. Point Of View
INTRO/VERSE

e]--------------------------------------------------------------------
b]--------------------------------------------------------------------
g]----66-7---------------------------77-66-7-----77-------------------
d]-77-66-7-77777777-77-44-2-77777777-77-66-7-7777--77-77-44-22222222--  
a]-77-44-5----------77-44-2----------77-44-5----------77-44-22222222--
e]-55---------------55-22-0----------55---------------55-22-00000000--

CHORUS

e]-----------------------------------------------------------------------
b]-----------------------------------------------------------------------
g]----------99999999----------77777777--------99999999-1111111111111111--
d]-77777777-99999999-99999999-77777777---(x2)-99999999-1111111111111111--
a]-77777777-77777777-99999999-55555555--------77777777--9-9-9-9-9-9-9-9--
e]-55555555----------77777777--------------------------------------------

e]-----------------------------------------------------------------------
b]-----------------------------------------------------------------------
g]----------77777777-----------------------------------------------------
d]-99999999-77777777---(x2)----------------------------------------------
a]-99999999-55555555-----------------------------------------------------
e]-77777777--------------------------------------------------------------

SOLO

e]-55790-22450-55790-12p-11p-9p0-7p0-55790-22450-55790-12p0-11p0-9p0-7p0--
b]------------------------------------------------------------------------
g]------------------------------------------------------------------------
d]------------------------------------------------------------------------
a]------------------------------------------------------------------------
e]------------------------------------------------------------------------

e]-9754-5424-5424-5754-5424-5424-554-202------
b]--------------------------------------------
g]--------------------------------------------
d]--------------------------------------------
a]--------------------------------------------
e]--------------------------------------------

thats it

ORDER

intro/verse     x3
chorus          x1 
solo            x1
intro/verse     x2


10. My Pet Sally
A easy Blink 182 song.

Intro (Bass)
G|-------------------------------------------------------|
D|---------0-0-0-0---------------------------------------|
A|-0-0-2-2-----------------------------------------------|
E|-------------------------------------------------------|

Riff
e|-------------------------------------------------------|
B|-------------------------------------------------------|
G|---9-----9p6-----7-----7-----7-7-----------------------|
D|-7---7-7-----7-7---7-7---7-7---------------------------|
A|-------------------------------------------------------|
E|-------------------------------------------------------|

Verse
e|-------------------------------------------------------|
B|-------------------------------------------------------|
G|---9---7---9-7-----------------------------------------|
D|-7-9-7-7-7-9-7-7---------------------------------------|
A|-7-7-7-5-7-7-5-7---------------------------------------|
E|-5---5---5-----5---------------------------------------|

Chorus
e|-------------------------------------------------------|
B|-------------------------------------------------------|
G|-9-7-----9-7-----9-6-7---------------------------------|
D|-9-7-7---9-7-7---9-6-7---------------------------------|
A|-7-5-7---7-5-7---7-4-5---------------------------------|
E|-----5-------5-----------------------------------------|

Interlude
e|-------------------------------------------------------|
B|-------------------------------------------------------|
G|-----6-------7-------9-------7-------------------------|
D|---6---6---7---7---9---9---7---7-----------------------|
A|-4-------5-------7-------5-----------------------------|
E|-------------------------------------------------------|


11. Reebok Commercial
intro pt1
e--------------------|
b--------------------|
g--------------------|
d-7~--------7---7~---|
a-7~------5-----7~---|
e-5~------------5~---|

intro pt2
e----------------------------------------|
b----------------------------------------|
g----------------------------------------|
d-77777-1212121212-1414141414-1212121212-|x4
a-55555-1010101010-1212121212-1010101010-|
e----------------------------------------|

intro pt3
e-------------------------|
b-------------------------|
g-7xx77-7xx77-4xx44-------|
d-7xx77-7xx77-4xx44-5xx55-|x4
a-5xx55-4xx44-2xx22-5xx55-|
e-------------------3xx33-|

pre-verse
e----------------------------------------|
b----------------------------------------|
g-77-99-1111-1212-1414-1212--------------|
d-77-99-1111-1212-1414-1212--------------|x1 and a half
a-55-77--9-9-1010-1212-1010-9/10/9-7/9/7-|
e----------------------------------------|

verse
e----------------------------------|
b----------------------------------|
g-77777777-------------------------|
d-77-77-7-5555555-7777777-55555555-|x4
a-55-55-5-55-55-5-77-77-7-55-55-5--|
e---------33-33-3-55-55-5-33-33-3--|
then play pre verse twice again

chorus
e-------------------------|
b-------------------------|
g-77777-------------------|
d-77777-77777-44444-55555-|x4
a-55555-77777-44444-55555-|
e-------55555-22222-33333-|

solo
e---------------------------------------------------------------|
b---------------------------------------------------------------|
g-777-999-111111-99-7-777-7h999-121212-11-9-777-999-111111-99-7-|
d---------------------------------------------------------------|
a---------------------------------------------------------------|
e---------------------------------------------------------------|
(cont)
e--------------------10----10-1212-1010-9------10----10-1414-1212-|
b------------------10--1010--------------10--10--1010-------------|
g-7p6-9p6-7p6-9p6-------------------------------------------------|
d-----------------------------------------------------------------|
a-----------------------------------------------------------------|
e-----------------------------------------------------------------|
(cont)
e-10-9------------1212-1010-9--------------1414-1212-10-9-|
b------1010101010------------10--1010101010---------------|
g---------------------------------------------------------|
d---------------------------------------------------------|
a---------------------------------------------------------|
e---------------------------------------------------------|
(cont)
e-9h109109h109h109h109h109h109h10-9h129h129h129h129h129h129h129h12-|
b------------------------------------------------------------------|just this
g------------------------------------------------------------------|bit twice
d------------------------------------------------------------------|
a------------------------------------------------------------------|
e------------------------------------------------------------------|
then play chorus twice then your done
fairly hard song but sounds heaps good
need any fly swatter tabs or any other blink
stuff e-mail your reqeusts

this is the lyrics:
you are better than me girls money and everything
i need,try to compete with you,but you beat me
at everything i do,i see in you the things that i 
would like to be,but im different from you so you
will have TO BE LIKE ME

i cant be wrong my personalitys what i choose,
i was brought up without a silver cup,
i wont bother about things own by you,
4 all the world,and material things and ammo
and more,the jealousey of you and me
i wont have change all my own score


12. Toast and Bananas
intro (theres some muting that you can figure out)
e---------------------------------------------|
b---------------------------------------------|
g----------------------------6/7-7777---------|
d-77777777-22222222-44444444-6/7-7777---------|
a-77777777-22222222-44444444-4/5-5555-5-4-2-0-|
e-55555555-00000000-22222222------------------|

pre-verse (double picked)
e--------------------------------|
b--------------------------------|
g--------------------------------|
d----77766-----------------------|
a-00-------775544--0077755450----|
e--------------------------------|

verse
e--------------------------|
b--------------------------|
g-------------------77777--|
d-77777-22222-44444-77777--|
a-77777-22222-44444-55555--|
e-55555-00000-22222--------|

chorus
e---------------------------------------------------|
b---------------------------------------------------|
g-----999-111111-77777-------99999-1111111111-77777-|
d-777-999-111111-77777-77777-99999-1111111111-77777-|
a-777-777--9-9-9-55555-77777-77777--9-9-9-9-9-55555-|
e-555------------------55555------------------------|

pre chorus-(..say to me as i tune you out of my mind..)
e------------------------|
b------------------------|
g-------------77777777---|
d-77777-44444-77777777---|
a-77777-44444-55555555---|
e-55555-22222------------|

solo
e----------------------------------------------------|
b----------------------------------------------------|
g----------------------------------------------------|
d----------------------------------------------------|
a-02457542-02457542-02457542-24540-02457542-02457542-|
e----------------------------------------------------|

(cont)
e---------------------------9-------------9-------------9----|
b------------------10101010---12-10101010---12-10101010---12-|
g------------------------------------------------------------|
d------------------------------------------------------------|
a-02457542-24540---------------------------------------------|
e------------------------------------------------------------|

(cont)
e--1212-1010-9-12-----------9--------------9-----|
b------------------10101010---12--10101010---12--|
g------------------------------------------------|
d------------------------------------------------|
a------------------------------------------------|
e------------------------------------------------|

(cont)
e----------------------------|
b----9-9h10-12-----9-9h10----|
g--9------------9---------9--|
d----------------------------|
a----------------------------|
e----------------------------|


lyrics: (my pants are off right now)
do you wanna know what i think of you,
cause your not the way i thought you should be,
to take back what you said,its time to fix,
its time to fix your head,and now all alone,
one lessons to,ive never been better off living lonely,
to listen to what you say,i couldnt care less of what u say,
why do you think he acted this,i bet you never really
thought at all,is that what you compreh,is that why
i call your anger 4 me,i want you to know,
i do wanna live,now im a man whos just really small,
to listen to what you say,i couldnt care less of what
you say to me as i walk alone,id much rather be writing
from a,to be just another one narly to,
(this is the little pre chorus part)
what you say to me as i tune you put of my mind,
i wont bend over backwards,or take another step at you,
heres from you again,.................................


13. The Girl Next Door
Intro x2
E----------------------------------------------------------------------------
B----------------------------------------------------------------------------
G--------------------------4-4-4-4-4-4-4-4-4-4-4-4---------------------------
D-5-5-5-5-5-5-5-5-5-5-5-5--4-4-4-4-4-4-4-4-4-4-4-4---------------------------
A-5-5-5-5-5-5-5-5-5-5-5-5--2-2-2-2-2-2-2-2-2-2-2-2---------------------------
E-3-3-3-3-3-3-3-3-3-3-3-3----------------------------------------------------

E----------------------------------------------------------------------------
B----------------------------------------------------------------------------
G--------------------------5-5-5-5-5-5-5-5-5-5-5-5---------------------------
D-2-2-2-2-2-2-2-2-2-2-2-2--5-5-5-5-5-5-5-5-5-5-5-5---------------------------
A-2-2-2-2-2-2-2-2-2-2-2-2--3-3-3-3-3-3-3-3-3-3-3-3---------------------------
E-0-0-0-0-0-0-0-0-0-0-0-0----------------------------------------------------


Riff 1
E----------------------------------------------------------------------------
B----------------------------------------------------------------------------
G----------------------------------------------------------------------------
D----------------------------------------------------------------------------
A----0--2--3--2--0------0--5--5--5--5--5--5--5--5----------------------------
E-3------------------3-------------------------------------------------------


Verse x2    
E----------------------------------------------------------------------------
B----------------------------------------------------------------------------
G--------------------------4-4-4-4-4-4-4-4-4-4-4-4---------------------------
D-5-5-5-5-5-5-5-5-5-5-5-5--4-4-4-4-4-4-4-4-4-4-4-4---------------------------
A-5-5-5-5-5-5-5-5-5-5-5-5--2-2-2-2-2-2-2-2-2-2-2-2---------------------------
E-3-3-3-3-3-3-3-3-3-3-3-3----------------------------------------------------

E----------------------------------------------------------------------------
B----------------------------------------------------------------------------
G--------------------------5-5-5-5-5-5-5-5-5-5-5-5---------------------------
D-2-2-2-2-2-2-2-2-2-2-2-2--5-5-5-5-5-5-5-5-5-5-5-5---------------------------
A-2-2-2-2-2-2-2-2-2-2-2-2--3-3-3-3-3-3-3-3-3-3-3-3---------------------------
E-0-0-0-0-0-0-0-0-0-0-0-0----------------------------------------------------
                           x x   x x   x x   x x


Chorus x4
E----------------------------------------------------------------------------
B----------------------------------------------------------------------------
G------------------4-4-4-4-4-4-4-4-------------------5-5-5-5-5-5-5-5---------
D-5-5-5-5-5-5-5-5--4-4-4-4-4-4-4-4--2-2-2-2-2-2-2-2--5-5-5-5-5-5-5-5---------
A-5-5-5-5-5-5-5-5--2-2-2-2-2-2-2-2--2-2-2-2-2-2-2-2--3-3-3-3-3-3-3-3---------
E-3-3-3-3-3-3-3-3-------------------0-0-0-0-0-0-0-0--------------------------


Play the verse and chorus again, and then play                         


Verse 2

E----------------------------------------------------------------------------
B----------------------------------------------------------------------------
G----------------------------4-----------------------------------------------
D-5--------------------------4-----------------------------------------------
A-5--------------------------2-2-2-2-2-2-2-2-2-2-2---------------------------
E-3-3-3-3-3-3-3-3-3-3-3-3-3--------------------------------------------------
    x x x x x x x x x x x x    x x x x x x x x x x                       


E----------------------------------------------------------------------------
B----------------------------------------------------------------------------
G--------------------------5-5-5-5-5-5-5-5-5-5-5-5---------------------------
D-2------------------------5-5-5-5-5-5-5-5-5-5-5-5---------------------------
A-2------------------------3-3-3-3-3-3-3-3-3-3-3-3---------------------------
E-0-0-0-0-0-0-0-0-0-0-0-0----------------------------------------------------
    x x x x x x x x x x x  x x   x x   x x   x x

E----------------------------------------------------------------------------
B----------------------------------------------------------------------------
G--------------------------4-4-4-4-4-4-4-4-4-4-4-4---------------------------
D-5-5-5-5-5-5-5-5-5-5-5-5--4-4-4-4-4-4-4-4-4-4-4-4---------------------------
A-5-5-5-5-5-5-5-5-5-5-5-5--2-2-2-2-2-2-2-2-2-2-2-2---------------------------
E-3-3-3-3-3-3-3-3-3-3-3-3----------------------------------------------------

E----------------------------------------------------------------------------
B----------------------------------------------------------------------------
G--------------------------5-5-5-5-5-5-5-5-5-5-5-5---------------------------
D-2-2-2-2-2-2-2-2-2-2-2-2--5-5-5-5-5-5-5-5-5-5-5-5---------------------------
A-2-2-2-2-2-2-2-2-2-2-2-2--3-3-3-3-3-3-3-3-3-3-3-3---------------------------
E-0-0-0-0-0-0-0-0-0-0-0-0----------------------------------------------------
                           x x   x x   x x   x x




Riff 1 x4
E----------------------------------------------------------------------------
B----------------------------------------------------------------------------
G----------------------------------------------------------------------------
D----------------------------------------------------------------------------
A----0--2--3--2--0------0--5--5--5--5--5--5--5--5----------------------------
E-3------------------3-------------------------------------------------------


Chorus x4
E----------------------------------------------------------------------------
B----------------------------------------------------------------------------
G------------------4-4-4-4-4-4-4-4-------------------5-5-5-5-5-5-5-5---------
D-5-5-5-5-5-5-5-5--4-4-4-4-4-4-4-4--2-2-2-2-2-2-2-2--5-5-5-5-5-5-5-5---------
A-5-5-5-5-5-5-5-5--2-2-2-2-2-2-2-2--2-2-2-2-2-2-2-2--3-3-3-3-3-3-3-3---------
E-3-3-3-3-3-3-3-3-------------------0-0-0-0-0-0-0-0--------------------------




Ending

E----------------------------------------------------------------------------
B----------------------------------------------------------------------------
G-5-4-2----------------------------------------------------------------------
D-5-4-2-5--------------------------------------------------------------------
A-3-2-0-5--------------------------------------------------------------------
E-------3--------------------------------------------------------------------


14. Don't
Intro (palm mute these chords)

E----------------------------------------------------------
B----------------------------------------------------------
G-------------------------0-----0-----0-----0--------------
D-77-777-77-777-77-777-7---4-0---4-0---4-0---4-0-----------
A-55-555-55-555-55-555-5-----------------------------------
E----------------------------------------------------------

Intro continued x4 (Play this part really fast)

E----3----3----3----3h2------------------------------------
B-3-3--3-3--3-3--3-3---------------------------------------
G----------------------------------------------------------
D----------------------------------------------------------
A----------------------------------------------------------
E----------------------------------------------------------

Intro continued           
                                                     
E----------------------------------------------------------
B----------------------------------------------------------
G-0----0-----0-----0---------------------------------------
D--4-0--4-0---4-0---4-0------------------------------------
A----------2-----2-----2-----------------------------------
E----------------------------------------------------------


Verse           The Bass plays this part but I tabbed it 
                for guitar
E-------------|--------------------------------------------
B-------------|--------------------------------------------
G-7-----------|--------------------------------------------
D-7-(let-ring)|--------------------------------------------
A-5-----------|--------------------------------------------
E-------------|-11111111-33333333-55555555-66666666--------

Verse continued

E----------------------------------------------------------
B----------------------------------------------------------
G----------------------------------------------------------
D----------------------------------------------------------
A----------------------------------------------------------
E-11111111-33333333-55555555-66666666----------------------

Chorus (play this every sentence you sing)

E----------------------------------------------------------
B----------------------------------------------------------
G----------------------------------------------------------
D-555555555-444444444-7777777777777------------------------
A-555555555-444444444-7777777777777------------------------
E-333333333-222222222-5555555555555------------------------

Interlude (play this kinda slow)

E----------------------------------------------------------
B--2-2-2-2-2-2-2--3-3-3-3-3-3--32-2-2-2-2-2-2-3-3-3-3-3---
G-2-------------2-------------2---------------2------------
D----------------------------------------------------------
A----------------------------------------------------------
E----------------------------------------------------------

play the Intro

play the Verse

play the Chorus

play the Interlude

Interlude 2 x4 (Remember: Play this really fast)

E----3----3----3----3h2------------------------------------
B-3-3--3-3--33--3-3---------------------------------------
G----------------------------------------------------------
D----------------------------------------------------------
A----------------------------------------------------------
E----------------------------------------------------------

End On

D-5-
A-5-
E-3-
Related for Buddha tab