Song name
# A B C D E F G H I J K L M N O P Q R S T U V W X Y Z

Blink 182 - I Miss You Live tab

Help us improve GuitareTab! Take a short survey!
This is my first tab, so it might suck, but anyway, This is when they play I miss you on 
Pepsi Bash on WB.

Capo on 2nd fret.

Intro and verse
e|-----------------------------------------------------|
B|-----------------------------------------------------|
G|-----------------------------------------------------|
D|--99/131313--99/131313--99/131313--99/131313\9-------|
A|--xx/xxxxxx--xx/xxxxxx--xx/xxxxxx--xx/xxxxxx\x-------|
E|--77/111111--77/111111--77/111111--77/111111\7-------|

Pre-Chorus (some kind of distorted chorus maybe?)
e|-----------------------------------------------------|
B|-----------------------------------------------------|
G|-----------------------------------------------------|
D|---9~------------------------------------------------|
A|---x~-let ring---------------------------------------|
E|---7~------------------------------------------------|

Verse (when tom sings)
e|-----------------------------------------------------|
B|-----------------------------------------------------|
G|-----------------------------------------------------|
D|---9-9-9-9-8-8-8-8-6-6-6-6-8-8-8-8-------------------|
A|---x-x-x-x-x-x-x-x-x-x-x-x-x-x-x-x-------------------|
E|---7-7-7-7-6-6-6-6-4-4-4-4-6-6-6-6-------------------|

Chorus (don't waiste your time on me) distortion
e|------------------------------------------------------|
B|------------------------------------------------------|
G|------------------------------------------------------|
D|---9-9-9-9---11-11-11-11----13-13-13-13---11-11-11-11-|
A|---x-x-x-x----x--x--x--x-----x--x--x--x----x--x--x--x-|
E|---7-7-7-7----9--9--9--9----11-11-11-11----9--9--9--9-|

e|------------------------------------------------------|
B|------------------------------------------------------|
G|------------------------------------------------------|
D|---6-6-6-6---8-8-8-8---9-9-9-9------------------------|
A|---x-x-x-x---x-x-x-x---x-x-x-x------------------------|
E|---4-4-4-4---6-6-6-6---7-7-7-7------------------------|

Interlude (with the same distorted chorus)
e|-----------------------------|-1st-time-|-2nd-time-|--|
B|-----------------------------|----------|------11--|--|
G|-----11--------11-------11---|------11--|----------|--|
D|---9-------9/8------8/9------|-9/11-----|-9/11-----|--|
A|-----------------------------|----------|----------|--|
E|-----------------------------|----------|----------|--|

Chorus (4x)

Then they do some crazy ending that I have no idea what he does. Maybe if you have the 
you can watch it. If you dont have the video, you can download it from punkrockvids.com. 
all! Thanks.
Related for I Miss You Live tab