Song name
# A B C D E F G H I J K L M N O P Q R S T U V W X Y Z

Blink 182 - Rich Lips Live tab

Help us improve GuitareTab! Take a short survey!
  Song:Rich Lips
  Band:Blink 182
  Tab by Josh Mossley

   Ite this is my first tab but i'm sure its rite.

 E]----------------------------------------------------------------------|
 A]----------------------------------------------------------------------|
 D]----------------------------------------------------------------------|
 G]-11-11-11-11-11-11-11-11-11-11-11-11-11-11-11-11-11-11-11-11-11-11-11-|
 B]--8--8--8--8--8--8--8--8--9--9--9--9--9--9--9--9-11-11-11-11-11-11-11-|
 E]--8--8--8--8--8--8--8--8--9--9--9--9--9--9--9--9-11-11-11-11-11-11-11-|

 E]----------------------------------------------------------------------|
 A]----------------------------------------------------------------------|
 D]----------------------------------------------------------------------|
 G]-11-13-13-13-13-13-13-13-13-------------------------------------------|  Play Twice
 B]-11-11-11-11-11-11-11-11-11-------------------------------------------|
 E]-11-11-11-11-11-11-11-11-11-------------------------------------------|


  For any Corrections or comments email me at allstars_99@hotmail.com
Related for Rich Lips Live tab