Song name
# A B C D E F G H I J K L M N O P Q R S T U V W X Y Z

Blink 182 - Lifes So Boring tab

Intro 8x
E|------------|
B|------------|
G|-----0----0-|
D|-5-5---55---|
A|------------|
E|------------|

Chords 4x
E|--------------------|
B|--------------------|
G|-----------4----5---|
D|-5----2----4----5---|
A|-5----0----2----3---|
E|-3------------------|

Intro 8x
Chords 2x
Riff 8x
E|--------------|
B|--------------|
G|---7---7-5-4--|
D|-5---5--------|
A|--------------|
E|--------------|

Intro 10x
Chords 2x
Riff 8x

E|----|
B|----|
G|----|
D|-4--|
A|-4--|
E|-2--|

Intro 16x

E|----|
B|----|
G|----|
D|----|
A|----|
E|-5--|
Tap to rate this tab
# A B C D E F G H I J K L M N O P Q R S T U V W X Y Z