Song name
# A B C D E F G H I J K L M N O P Q R S T U V W X Y Z

Blink 182 - Adams Song Live tab

Help us improve GuitareTab! Take a short survey!
Blink182, Adam's song(live version).
Tabbed by dave, wain81@hotmail.com.
  
This is the version off The Mark tom & Travis show. Its played different live for some reason.
Intro
e----------------------------------------------------I
b----------------------------------------------------I
g----------------------------------------------------I
d-----------------------1-------1-------1------1-----I
a-----6---------6---------2-------2-------2------2---I
E--4----7----4----7---2-------2-------0------0-------I

e----------------------------------------------------I
b----------------------------------------------------I
g----------------------------------------------------I
d-----1-------1--------------------------------------I
a-------2-------2---------repeatX4-------------------I
E--2--------0----------------------------------------I

Verse
e----------------------------------------------------I
b----------------------------------------------------I
g----------------------------------------------------I
d-44444444-------------------------------------------I
a-22222222--22222222--66666666--22222222-------------I
E-----------00000000--44444444--00000000-------------I
----pm--------pm--------pm---------pm-----------------

Interlude
e----------------------------------------------------I
b----------------------------------------------------I
g----------------------------------------------------I
d----4-2----4-2----6------6-------------------1---1--I
a--2------2------4---7--4---7----6------6------2---2-I
E------------------------------4---7--4---7--2---2---I

Chorus/Verse 2
e----------------------------------------------------I
b----------------------------------------------------I
g----------------------------------------------------I
d-44444444--66666666---------------------------------I
a-22222222--44444444-66666666-22222222---------------I
E--------------------44444444-00000000---------------I

that's about it. 

 
:: Ultimate Guitar Archive :: 
http://www.ultimate-guitar.com 

Related for Adams Song Live tab