Song name
# A B C D E F G H I J K L M N O P Q R S T U V W X Y Z

Blink 182 - You Fucked Up My Life tab

pretty easy going



Intro 1 guitar
e|---------|
b|---0-----|
g|-----2---|
d|-2-------| x6
a|---------|
e|---------|




Intro (x2) 2 guitar
e|---------------------------------------------|
B|---------------------------------------------|
G|-----------------------------77777777--------|
D|--77777777-77777777-44444444-77777777--------|
A|--77777777-77777777-44444444-55555555--------|
E|--55555555-55555555-22222222-----------------|

Verse (x2)
e|-------------------------------------------------------------------------|
B|-------------------------------------------------------------------------|
G|---------------------------------9-9999-99-99999-7-7777-77-77777---------|
D|-7-7777-77-77777-4-4444-44-44444-9-9999-99-99999-7-7777-77-77777---------|
A|-7-7777-77-77777-4-4444-44-44444-7-7777-77-77777-5-5555-55-55555---------|
E|-5-5555-55-55555-2-2222-22-22222-----------------------------------------|

Intro (x2)
e|---------------------------------------------|
B|---------------------------------------------|
G|-----------------------------77777777--------|
D|--77777777-77777777-44444444-77777777--------|
A|--77777777-77777777-44444444-55555555--------|
E|--55555555-55555555-22222222-----------------|

Verse (x2)
e|-------------------------------------------------------------------------|
B|-------------------------------------------------------------------------|
G|---------------------------------9-9999-99-99999-7-7777-77-77777---------|
D|-7-7777-77-77777-4-4444-44-44444-9-9999-99-99999-7-7777-77-77777---------|
A|-7-7777-77-77777-4-4444-44-44444-7-7777-77-77777-5-5555-55-55555---------|
E|-5-5555-55-55555-2-2222-22-22222-----------------------------------------|

Chorus (x2)
e|-------------------------------------------------------------------------|
B|-------------------------------------------------------------------------|
G|----------------------------------------------777-77-7-77777-------------|
D|-777-77-7-77777-666-66-6-66666-444-44-4-44444-777-77-7-77777-------------|
A|-777-77-7-77777-666-66-6-66666-444-44-4-44444-555-55-5-55555-------------|
E|-555-55-5-55555-444-44-4-44444-222-22-2-22222----------------------------|

Intro (x2)
e|---------------------------------------------|
B|---------------------------------------------|
G|-----------------------------77777777--------|
D|--77777777-77777777-44444444-77777777--------|
A|--77777777-77777777-44444444-55555555--------|
E|--55555555-55555555-22222222-----------------|

Verse (x2)
e|-------------------------------------------------------------------------|
B|-------------------------------------------------------------------------|
G|---------------------------------9-9999-99-99999-7-7777-77-77777---------|
D|-7-7777-77-77777-4-4444-44-44444-9-9999-99-99999-7-7777-77-77777---------|
A|-7-7777-77-77777-4-4444-44-44444-7-7777-77-77777-5-5555-55-55555---------|
E|-5-5555-55-55555-2-2222-22-22222-----------------------------------------|

Chorus (x2)
e|-------------------------------------------------------------------------|
B|-------------------------------------------------------------------------|
G|----------------------------------------------777-77-7-77777-------------|
D|-777-77-7-77777-222-22-2-22222-444-44-4-44444-777-77-7-77777-------------|
A|-777-77-7-77777-222-22-2-22222-444-44-4-44444-555-55-5-55555-------------|
E|-555-55-5-55555-000-00-0-00000-222-22-2-22222----------------------------|

Bridge 1 (x2)
e|---------------------------------------------------|
B|--------5----------2----------5-----------2--------|
G|-----2------2---2-----2----2-----2-----2-----2-----|
D|---------------------------------------------------|
A|--0-----------0----------0----------0--------------|
E|---------------------------------------------------|
then...
e|-----------------------------------------------------|
B|-------5-----------2-----------5-----------2---------|
G|----2-----2-----2-----2-----2-----2-----2-----2------|
D|-0-----------0-----------0-----------0---------------|
A|-----------------------------------------------------|
E|-----------------------------------------------------|

Interlude-

e|-------------------|----|---------------------|----|-
b|-------------------|----|---------------------|----|-
g|-----9---------6---|----|-------9---------6---|----|-
d|---7---9-----7---7-|-x2-|-----7---7-----7---7-|-x2-|-
a|-------------------|----|---5---------5-------|----|-
E|-5---------5-------|----|---------------------|----|-

e--------------------|-------------------|----|------|-
b--------------------|-------------------|----|------|-
g------9----------6--|------9---------6--|---6|--x3--|-
d----7---9------7---7|----7---7-----7---7|--7-|------|-
a--------------------|-------------------|----|------|-
e-5----------5-------|-7---------7-------|5---|------|-




Bridge (x1)
e|-----------------------------------------------------------------|
B|-----------------------------------------------------------------|
G|-----------------77-7777-7-77777---------------------------------|
D|-44-4444-4-44444-77-7777-7-77777-77-7777-7-77777-77-7777-7-77777-|
A|-44-4444-4-44444-55-5555-5-55555-77-7777-7-77777-77-7777-7-77777-|
E|-22-2222-2-22222-----------------55-5555-5-55555-55-5555-5-55555-|
then...
e|-----------------------------------|
B|-----------------------------------|
G|-----------------------------------|
D|-99-9999-9-99999-77-7777-7-77777---|
A|-99-9999-9-99999-77-7777-7-77777---|
E|-77-7777-7-77777-55-5555-5-55555---|

Outro (x8)
e|---------------------------------------------|
B|---------------------------------------------|
G|---------------------------77777777----------|
D|-77777777-7777777-44444444-77777777----------|
A|-77777777-7777777-44444444-55555555----------|
E|-55555555-5555555-22222222-------------------|
Tap to rate this tab
# A B C D E F G H I J K L M N O P Q R S T U V W X Y Z