Song name
# A B C D E F G H I J K L M N O P Q R S T U V W X Y Z

Blink 182 - Genie In A Bottle Live tab

          GENIE IN A BOTTLE (LIVE)
                            As Performed by Blink 182

Words by Christina AguileraMusic by Blink 182
Arranged by Blink 182
Transcribed by Aaron Hetherington

 Intro
  Q=140
  N.C.
 4/4
  Gtr I
            <
            T
|---------|----------------|----------|---------------|
|---------|----------------|----------|---------------|
|---------|----------------|----------|---------------|
|---------|----------------|----------|---------------|
|---------|-5(17)------3p2h|=3--------|-(3)------2h3--|
|---------|----------------|----------|---------------|


|-------------|--------------|----------|-----------------|
|-------------|--------------|----------|-----------------|
|-------------|--------------|----------|-----------------|
|-------------|--------------|----------|------------4h5--|
|------2h3h5--|-(5)------3p2h|=3--------|-(3)----(3)------|
|-3-----------|--------------|----------|-----------------|


                                             Gtr II      Gtr I
                                             PM--------|
|------------|--------------|----------|-------------------|
|------------|--------------|----------|-------------------|
|------------|--------------|----------|-------------------|
|-5------4h5h|=7------4-(4)-|-5--------|-(5)-5-5-5-4-4-0---|
|------------|--------------|----------|-----------------3-|
|------------|--------------|----------|-------------------|


|--------------|----------------|----------|--------|
|--------------|----------------|----------|--------|
|--------------|----------------|----------|--------|
|--------------|----------------|----------|--------|
|-(3)p2--------|-2h3p2h3p2h3p2--|----------|--------|
|----------3---|----------------|-3--------|-(3)----|


   Verse
    G5                D5                C5
||------------------|-----------------|-----------------|-------------------||
||o-----------------|-----------------|-----------------|------------------o||
||------------------|-----------------|-----------------|-------------------||
||------------------|-7-7-7-7-7-7-7-7-|-5-5-5-5-5-5-5-5-|-5-5-5-5-5-5-5-5---||
||o-5-5-5-5-5-5-5-5-|-5-5-5-5-5-5-5-5-|-3-3-3-3-3-3-3-3-|-3-3-3-3-3-3-3-3--o||
||--3-3-3-3-3-3-3-3-|-----------------|-----------------|-------------------||


  C5
|----------|------------|------------|----------*|
|----------|------------|------------|----------*|
|-5--------|-(5)--------|-(5)--------|--(5)-----*|
|-5--------|-(5)--------|-(5)--------|--(5)-----*|
|-3--------|-(3)--------|-(3)--------|-([3])----*|
|----------|------------|------------|----------*|

Tap to rate this tab
 
# A B C D E F G H I J K L M N O P Q R S T U V W X Y Z