Song name
# A B C D E F G H I J K L M N O P Q R S T U V W X Y Z

Blink - Josie tab

Intro                                                  12x
e:---------------------------------------------------------|
B:---------------------------------------------------------|
G:---4-----------------------------------------------------|
D:---4-----------------------------------------------------|
A:---2-----------------------------------------------------|
E:---------------------------------------------------------|

verse
e:---------------------------------------------------------|
b:---------------------------------------------------------|
G:-44444444------------------------------------------------|
D:-44444444-44444444-22--222--222--222---------------------|
A:-22222222-44444444-22--222--222--222---------------------|
E:----------22222222-00--000--000--000---------------------|

e:---------------------------------------------------------|
B:---------------------------------------------------------|
G:-44444444-66666666-99999999999999999---------------------|
D:-44444444-66666666-99999999999999999---------------------|
A:-22222222-44444444-77777777777777777---------------------|
E:---------------------------------------------------------|

e:---------------------------------------------------------|
b:---------------------------------------------------------|
G:-44444444------------------------------------------------|
D:-44444444-44444444-22--222--222--222---------------------|
A:-22222222-44444444-22--222--222--222---------------------|
E:----------22222222-00--000--000--000---------------------|

e:---------------------------------------------------------|
B:---------------------------------------------------------|
G:-44444444-66666666-99999999999999999---------------------|
D:-44444444-66666666-99999999999999999---------------------|
A:-22222222-44444444-77777777777777777---------------------|
E:---------------------------------------------------------|

e:---------------------------------------------------------|
b:---------------------------------------------------------|
G:-44--444--4----------------------------------------------|
D:-44--444--4-44--444--4-22--222--222--222-----------------|
A:-22--222--2-44--444--4-22--222--222--222-----------------|
E:------------22--222--2-00--000--000--000-----------------|

e:---------------------------------------------------------|
B:---------------------------------------------------------|
G:-44444444-66666666-99999999999999999---------------------|
D:-44444444-66666666-99999999999999999---------------------|
A:-22222222-44444444-77777777777777777---------------------|
E:---------------------------------------------------------|

e:---------------------------------------------------------|
b:---------------------------------------------------------|
G:-44444444------------------------------------------------|
D:-44444444-44444444-22--222--222--222---------------------|
A:-22222222-44444444-22--222--222--222---------------------|
E:----------22222222-00--000--000--000---------------------|

e:---------------------------------------------------------|
B:---------------------------------------------------------|
G:-44444444-66666666-99999999999999999---------------------|
D:-44444444-66666666-99999999999999999---------------------|
A:-22222222-44444444-77777777777777777---------------------|
E:---------------------------------------------------------|

Chorus
e:---------------------------------------------------------|
B:---------------------------------------------------------|
G:-------------------4444444444444444----------------------|
D:-44444444-22222222-4444444444444444----------------------|
A:-44444444-22222222-2222222222222222----------------------|
E:-22222222-00000000---------------------------------------|

e:---------------------------------------------------------|
B:---------------------------------------------------------|
G:----------66666666---------------------------------------|
D:-44444444-66666666-2222222222222222----------------------|
A:-44444444-44444444-2222222222222222----------------------|
E:-22222222----------0000000000000000----------------------|

Chorus(2)
e:---------------------------------------------------------|
B:---------------------------------------------------------|
G:44444444-------------------------------------------------|
D:44444444-44444444-22222222-6666-4444---------------------|
A:22222222-44444444-22222222-6666-4444---------------------|
E:---------22222222-00000000-4444-2222---------------------|

e:---------------------------------------------------------|
B:---------------------------------------------------------|
G:44444444-------------------------------------------------|
D:44444444-44444444-22222222-6666-4444---------------------|
A:22222222-44444444-22222222-6666-4444---------------------|
E:---------22222222-00000000-4444-2222---------------------|

verse
e:---------------------------------------------------------|
b:---------------------------------------------------------|
G:-44--444--4----------------------------------------------|
D:-44--444--4-44--444--4-22--222--222--222-----------------|
A:-22--222--2-44--444--4-22--222--222--222-----------------|
E:------------22--222--2-00--000--000--000-----------------|

e:---------------------------------------------------------|
B:---------------------------------------------------------|
G:-44444444-66666666-99999999999999999---------------------|
D:-44444444-66666666-99999999999999999---------------------|
A:-22222222-44444444-77777777777777777---------------------|
E:---------------------------------------------------------|

e:---------------------------------------------------------|
b:---------------------------------------------------------|
G:-44444444------------------------------------------------|
D:-44444444-44444444-22--222--222--222---------------------|
A:-22222222-44444444-22--222--222--222---------------------|
E:----------22222222-00--000--000--000---------------------|

e:---------------------------------------------------------|
B:---------------------------------------------------------|
G:-44444444-66666666-99999999999999999---------------------|
D:-44444444-66666666-99999999999999999---------------------|
A:-22222222-44444444-77777777777777777---------------------|
E:---------------------------------------------------------|
Chorus
e:---------------------------------------------------------|
B:---------------------------------------------------------|
G:-------------------4444444444444444----------------------|
D:-44444444-22222222-4444444444444444----------------------|
A:-44444444-22222222-2222222222222222----------------------|
E:-22222222-00000000---------------------------------------|

e:---------------------------------------------------------|
B:---------------------------------------------------------|
G:----------66666666---------------------------------------|
D:-44444444-66666666-2222222222222222----------------------|
A:-44444444-44444444-2222222222222222----------------------|
E:-22222222----------0000000000000000----------------------|

Chorus(2)
e:---------------------------------------------------------|
B:---------------------------------------------------------|
G:44444444-------------------------------------------------|
D:44444444-44444444-22222222-6666-4444---------------------|
A:22222222-44444444-22222222-6666-4444---------------------|
E:---------22222222-00000000-4444-2222---------------------|

e:---------------------------------------------------------|
B:---------------------------------------------------------|
G:44444444-------------------------------------------------|
D:44444444-44444444-22222222-6666-4444---------------------|
A:22222222-44444444-22222222-6666-4444---------------------|
E:---------22222222-00000000-4444-2222---------------------|

e:---------------------------------------------------------|
B:---------------------------------------------------------|
G:44444444-------------------------------------------------|
D:44444444-44444444-22222222-6666-4444---------------------|
A:22222222-44444444-22222222-6666-4444---------------------|
E:---------22222222-00000000-4444-2222---------------------|

e:---------------------------------------------------------|
B:---------------------------------------------------------|
G:44444444-------------------------------------------------|
D:44444444-44444444-22222222-6666-4444---------------------|
A:22222222-44444444-22222222-6666-4444---------------------|
E:---------22222222-00000000-4444-2222---------------------|

Intro                                                  12x
e:---------------------------------------------------------|
B:---------------------------------------------------------|
G:---4-----------------------------------------------------|
D:---4-----------------------------------------------------|
A:---2-----------------------------------------------------|
E:---------------------------------------------------------|

Chorus(2)
e:---------------------------------------------------------|
B:---------------------------------------------------------|
G:44444444-------------------------------------------------|
D:44444444-44444444-22222222-6666-4444---------------------|
A:22222222-44444444-22222222-6666-4444---------------------|
E:---------22222222-00000000-4444-2222---------------------|

e:---------------------------------------------------------|
B:---------------------------------------------------------|
G:44444444-------------------------------------------------|
D:44444444-44444444-22222222-6666-4444---------------------|
A:22222222-44444444-22222222-6666-4444---------------------|
E:---------22222222-00000000-4444-2222---------------------|

e:---------------------------------------------------------|
B:---------------------------------------------------------|
G:44444444-------------------------------------------------|
D:44444444-44444444-22222222-6666-4444---------------------|
A:22222222-44444444-22222222-6666-4444---------------------|
E:---------22222222-00000000-4444-2222---------------------|

e:---------------------------------------------------------|
B:---------------------------------------------------------|
G:44444444-------------------------------------------------|
D:44444444-44444444-22222222-6666-4444---------------------|
A:22222222-44444444-22222222-6666-4444---------------------|
E:---------22222222-00000000-4444-2222---------------------|

:D Jhoni
Tap to rate this tab
# A B C D E F G H I J K L M N O P Q R S T U V W X Y Z