Song name
# A B C D E F G H I J K L M N O P Q R S T U V W X Y Z

Bliss N Eso - Reflections tab

Tuning: DADGBe

Chords
e----------------------------------------------|
B----------------------------------------------|
G----------------------------------------------|
D--------5------7--------10------------------- |
A--------5------7--------10--------------------|
D--------5------7--------10--------------------|

I THINK the picking part near the end is SOMETHING like this... I'm not too sure though...
Its not too hard to figure out by ear.. but i ceebs

e ---------------------------------------------------------------------|
B --10 -10 -10-10-10-10-10-//-----8-8-8-8-8-8-8------6-6-6-6-6-6-6-----|
G ---------------------------------------------------------------------|
D ---------------------------------------------------------------------|
A ---------------------------------------------------------------------|
D ---------------------------------------------------------------------|

Hope its ok (:

Simone.x
Tap to rate this tab
 
# A B C D E F G H I J K L M N O P Q R S T U V W X Y Z