Bliss N Eso - Where The Wild Things Are tab

it's a start..

most of it is palm muted.

   E   A    E A    E A   
E|-----------------------2/7-5----||
B|-0-0-2-2--0-2-2--0-2-2-2/7-5----||
G|-1-1-2-2--1-2-2--1-2-2-2/7-5----||
D|-2-2-2-2--2-2-2--2-2-2----------||
A|-2-2-0-0--2-0-0--2-0-0----------||
E|-X-X-X-X--X-X-X--X-X-X----------||

E|--------------------------------|
B|-777-666-555-444-333-222-111-0~-|
G|-777-666-555-444-333-222-111-0~-|
D|-777-666-555-444-333-222-111-0~-|
A|-777-666-555-444-333-222-111-0~-|
E|--------------------------------|
Tap to rate this tab
 
# A B C D E F G H I J K L M N O P Q R S T U V W X Y Z