Song name
# A B C D E F G H I J K L M N O P Q R S T U V W X Y Z

Bliss N Eso - This Is For You tab

----------------------------------------------------------------------------
	     THIS IS FORR YOU - BLISS N ESO 
-----------------------------------------------------------------------------
Tabbed by:BRIAN MCFARLANE
Email:pete_buzz_2431@hotmail.com

Tuning:EADGBe
       Am          C           G          D
e|-----------------------------3-----------2--------------------|
B|-----1-----------1-----------3-----------3--------------------|
G|-----2-----------------------------------2--------------------|
D|-----2-----------2--------------------------------------------|
A|-----------------3-----------2--------------------------------|
E|-----------------------------3--------------------------------|

Well thats the whole song, It speeds up and slows down during the song so listen
to it and go with it and ull be fine =).
Tap to rate this tab
 
# A B C D E F G H I J K L M N O P Q R S T U V W X Y Z