Song name
# A B C D E F G H I J K L M N O P Q R S T U V W X Y Z

Bliss - Dont Say tab

Intro/Verse/Chorus

---------------------------------------------------------------|(x2)
---------------------------------------------------------------|
---------------------------------------------------------------|
--2-----5-----5---3--------------------------------------------|
--0-----3-----5---3--------------------------------------------|
--0-----3-----3---1--------------------------------------------|

---------------------------------------------------------------------|
---------------------------------------------------------------------|
---------------------------------------------------------------------|
-2---5--5--3---2-----------------------------------------------------|
-0---3--5--3---2-----------------------------------------------------|
-0---3--3--1---0-----------------------------------------------------|

Just play those power chords in that order you can choose your own
srtumming pattern but i do a d-d-u-d-u-d-u-d-d-d

VERSE ONE

i show

you know

I glow

you dont

i slow

you keep going

CHORUS

hey hey hey dont say your not alone

hey hey hey dont sya your coming home

VERSE TWO

you show

i know

you glow

i dont

you slow

i keep going

CHORUS
Tap to rate this tab
 
# A B C D E F G H I J K L M N O P Q R S T U V W X Y Z