Song name
# A B C D E F G H I J K L M N O P Q R S T U V W X Y Z

Blitz - New Age tab

Help us improve GuitareTab! Take a short survey!
This tab may require you to do some string bending, hammering, palm muting, pick 
or other guitar techniques you will be able to figure out by listening to the song. You may 
have to play a chord shown more than once in sequence. This tab are in standard guitar tuning.

You can find more great punk/oi tabs on my site:
BLACKJACKAL.PHPNET.US

There are 2 ways you can play the Main Riff/Verse, the easy or the hard way.

The easy way to play the Main Riff and Verse:

e|-----------------    ------------------    -|
B|-----------------    ------------------    -|
G|-11-9-11-12-11-9-    ------------------    -|
D|-0--0-0--0--0--0- x2 -11-9-11-12-14-12- x2 -|
A|-----------------    -0--0-0--0--0--0--    -|
E|-----------------    ------------------    -|

The harder way to play the Main Riff and Verse:

e|-2-0-2-3-2-0-    -------------    -|
B|-3-3-3-3-3-3-    -2-0-2-3-5-3-    -|
G|-------------    -2-2-2-2-2-2-    -|
D|------------- x2 ------------- x2 -|
A|-------------    -------------    -|
E|-------------    -------------    -|

Chorus:

e|---------------|
B|---------------|
G|---------------|
D|-----7-------7-|
A|-5-7-5-5-5-7-5-|
E|-3-5---3-3-5---|

Solo:

e|-------------------------------------------|
B|-0-3-0-3-5-2-5-3-0-3-5-3-0-3-5-2-5-3-0-3-5-|
G|-------------------------------------------|
D|-------------------------------------------|
A|-------------------------------------------|
E|-------------------------------------------|
Related for New Age tab