Song name
# A B C D E F G H I J K L M N O P Q R S T U V W X Y Z

Blitzen Trapper - Black River Killer tab

-------------------------------------------------------------------------------
			     Black River Killer - Blitzen Trapper
-------------------------------------------------------------------------------
Tabbed by:MAXZ

Capo 4th Fret

Tuning:
   Am           Em        C      G       D
e|----------------------------------3p0--2-3p2-0-----------------------------|
B|-1------(1)------------------1---------3------3----------------------------|
G|-2------2-----0------(0)----0----------2-------2---------------------------|
D|-----0h2------2------2--0h2-----0------0--------0--------------------------|
A|0----0-----------0h2----3------2-------------------------------------------|
E|--(0)-------0--(0)-------------3-------------------------------------------|

It's not  exactly the same as the recording, but this will hopefully provide a solid 
for which one can build on and hopefully make "perfect".


************************************

| /   slide up
| \   slide down
| h   hammer-on
| p   pull-off
| ~   vibrato
| +   harmonic
| x   Mute note
| b   Bend
| pb  Pre-bend
| br  Bend release
| pbr Pre-bend release
| brb Bend release bend

************************************
Tap to rate this tab
# A B C D E F G H I J K L M N O P Q R S T U V W X Y Z