Song name
# A B C D E F G H I J K L M N O P Q R S T U V W X Y Z

Blitzen Trapper - Black River Killer tab

This tab is extremelly similar to the one of the original song. Hope you like it.

That is not the right speed but I thought it's better to put it more slow to see it easily.
Once you have it, try it a little faster and it should sound just like in the song.

For more doubts contact with me: foxjorge93@hmail.com

Capo on 4th fret

   Am                C       Em        C              G
|----0----0-------------0-----------------0--------------0------------------|
|----1------1-----------1---------------------------------------------------|
|-----------------------------------------0--------------0------------------|
|--------------2------------------2----------2--------------0---------------|
|-0-----0------------3-------0h2-------3-------(3)----2--------2------------|
|---------------------------------------------------------------------------|

    D
|---------3------2-----------------------------|
|------3---------------------------------------|
|----------------------------------------------|
|----------------------------------------------|
|---0--------0---------------------------------|
|----------------------------------------------|
Tap to rate this tab
 
# A B C D E F G H I J K L M N O P Q R S T U V W X Y Z