Song name
# A B C D E F G H I J K L M N O P Q R S T U V W X Y Z

Blitzen Trapper - Black River Killer tab

Tabbed by Timmmey.


The Song is played with the Capo on the 4th fret.
Its picked.
I know it isnt exactly the song but this is 90% correct.


Intro


------0----------0--------------------------------3------0-2---0-|
------1----------1-------1--------------1---------1----3-----3---|
------2--------2---2-----0--------------0------------------------|
-------------------------2-------0----2---2-----0---0--0---------|
--0---------0---------------0h2-----3----------------------------|
----------------------0-----------------------3------------------|

Verse


------0----------0--------------------------------3------0-2---2-|
------1----------1-------1--------------1---------1----3-----3---|
------2--------2---2-----0--------------0------------------------|
-------------------------2-------0----2---2-----0---0--0-----0---|
--0---------0---------------0h2-----3----------------------------|
----------------------0-----------------------3------------------|


The only thing that changes is the picking at the end!
It goes Intro-4xVerse-Intro-4xVerse-2xIntro-8xVerse-2xIntro-8xVerse-2xIntro


Between the 8xVerse part their is no intro just a little improvisation, just figure it 
from the song!

here the song: http://www.youtube.com/watch?
v=n7zyfArxibk&feature=PlayList&p=CE26F44C07604B41&playnext_from=PL&playnext=1&index=16


the text:http://www.metrolyrics.com/black-river-killer-lyrics-blitzen-trapper.html


My first tab.

Have fun ;)
Tap to rate this tab
# A B C D E F G H I J K L M N O P Q R S T U V W X Y Z