Blitzen Trapper - Dragons Song tab

-----------------------------------------------------------------
Dragon's Song - Blitzen Trapper
-----------------------------------------------------------------
Tabbed by: Jimmy Lacy
Email: Jamestlacy@gmail.com

Tuning: Standard

Intro riffs while playing a F#m chord
e|---------------------------------------------------------------|
B|---------------------------------------------------------------|
G|---------------------------------------------------------------|
D|---------------------------------------------------------------|
A|-----2-4-4-2-4---------2-4---------2-4-4-3-2-------------------|
E|---5-----------------5-----------5-----------5-2-0-1-2---------|

F#m
Make your way to the beat of the drum 
F#m
Make your way to the beat of the drum 
F#m
pray this day maybe best as one
F#m
Make your way to the beat of the drum

E       D            A            C#m
hold me tight in the light of the running sun
Bm
oh oh oh
E
your running sun
Bm
oh oh oh
E                 D A D A E
your running this on, my love
Yeah


make your way to the crack of the guns
up through the heat of the running suns

treetops sway as drape toward the wind and the rain
oh oh oh
its whats the earth can contain
oh oh oh
can we take the best as one

mandrakes clap as we gather in haze
and let the sun burn through to the ancient debates
you are half my heart set apart to the end of the day
oh oh oh oh

RIFF
e|------------------------------------|
B|------------------------------------|
G|-2-1---------1----------------------|
D|-----4-2---4---4-2-----------2------|
A|-------------------4-2-0-2-4---2----|
E|------------------------------------|

Riff twice, then Solo

Make our way to the beat of the drum
pray this day maybe best as one

Ill always race to the place of the dragon's song
oh oh oh
they draging this on
oh oh oh
they dragin this on my love

mandrakes clap as we gather in haze
and let the sun burn through to the ancient debates
you are half my heart set apart to the end of the day
oh oh oh oh

End RIFF
e|------------------------------------|
B|------------------------------------|
G|-2-1---------1----------------------|
D|-----4-2---4---4-2-----------4-3----|
A|-------------------4-2-0-2-4--------|
E|------------------------------------|
Tap to rate this tab
 
# A B C D E F G H I J K L M N O P Q R S T U V W X Y Z