Song name
# A B C D E F G H I J K L M N O P Q R S T U V W X Y Z

Blitzen Trapper - Black River Killer tab

Capo 4th fret

Intro Riff:

  Am              Em                C       G       D
e|----0-----0---------0-----------------------3-------0-2---0-------|
B|----1-----1---0-----0---------------1-----0-------------3---------|
G|----2-----2---0-----0-----------0-------0-------0-----------------|
D|--------------0---------------0-------0-------0---0---------------|
A|0-------------------------0h2-----3-------------------------------|
E|--------0---3---0-------------------------3-----------------------|


Variations repeat for the rest of the song, often with a different D picking:

  Am              Em                C       G       D
e|----0-----0---------0-----------------------3-------2-------2-----|
B|----1-----1---0-----0---------------1-----0-----------3-------3---|
G|----2-----2---0-----0-----------0-------0-------0-------2-------2-|
D|--------------0---------------0-------0-------0---0-------0-------|
A|0-------------------------0h2-----3-------------------------------|
E|--------0---3---0-------------------------3-----------------------|
Tap to rate this tab
 
# A B C D E F G H I J K L M N O P Q R S T U V W X Y Z