Song name
# A B C D E F G H I J K L M N O P Q R S T U V W X Y Z

Blitzkid - Im A Zombie tab

-------------------------------------------------------------------------------
			     I'm A Zombie - Blitzkid
-------------------------------------------------------------------------------
Tabbed by:Ebby
Email:cmmoorman@aol.com

Blitzkid is a realy good band!

This is my first time tabing outa song so i hope its right!

you guys can prolly figure out the order in wich the song is played so enjoy.

Tuning:Standard
                                                   Verse
e|---------------------------------------------------------------------------|
B|---------------------------------------------------------------------------|
G|55555555-------------------------------------------------------------------|
D|55555555----22222222----33333333----55555555-------------------------------|
A|33333333----22222222----33333333----55555555-------------------------------|
E|------------00000000----11111111----33333333-------------------------------|



                                                    chorus
e|---------------------------------------------------------------------------|
B|---------------------------------------------------------------------------|
G|-------------------------55555555555---------5-----------------------------|
D|33333333---55555555------55555555555---------5--5---3----------------------|
A|33333333---55555555------33333333333---------3--5---3----------------------|
E|11111111---33333333-----------------------------3---1----------------------|    pm:------------

                                              play at end of every chorus 
e|---------------------------------------------------------------------------|
B|---------------------------------------------------------------------------|
G|---------------------------------------------------------------------------|
D|3333333333333333-----5555555555555555--------------------------------------|
A|3333333333333333-----5555555555555555--------------------------------------|
E|1111111111111111-----3333333333333333--------------------------------------|


| /  slide up
| \  slide down
| h  hammer-on
| p  pull-off
| ~  vibrato
| +  harmonic
| x  Mute note
===============================================================================
Tap to rate this tab
# A B C D E F G H I J K L M N O P Q R S T U V W X Y Z