Song name
# A B C D E F G H I J K L M N O P Q R S T U V W X Y Z

Blitzkid - Lets Go To The Cemetery tab

Intro
E----------------------------------------------------------------|
B----------------------------------------------------------------|
G-4-44------6-666666---------------------------------------------|
D-4-44-4-44-6-666666---------------------------------------------|
A-2-22-4-44-4-444444---------------------------------------------|
E------2-22------------------------------------------------------|


Verse/Chorus
e---------------------------------------------------------------|
B---------------------------------------------------------------|
G--4--4--------6--6--6--6---------------------------------------|
D--4--4--4--4--6--6--6--6---------------------------------------|
A--2--2--4--4--4--4--4--4---------------------------------------|
E--------2--2---------------------------------------------------|
Tap to rate this tab
# A B C D E F G H I J K L M N O P Q R S T U V W X Y Z