Song name
# A B C D E F G H I J K L M N O P Q R S T U V W X Y Z

Blitzkid - Nadine tab

-------------------------------------------------------------------------------
			     NADINE - Blitzkid
-------------------------------------------------------------------------------
Tabbed by: ViolentWorld138
Email: Allmurder.Allguts.Allfun@hotmailc.om

Tuning: Standard

VERSE:
  C# E B C# B
e|---------------------|
B|---------------------|
G|---------------------|
D|-----9---------------|
A|11---7----9---11--9--|
E|9---------7----9--7--|
(strum as many times as needed)

CHORUS:
  A B E E B
e|-----------------|
B|-----------------|
G|-----------------|
D|--------9---9----|
A|7---9---7---7-9--|
E|5---7---------7--|
(strum as many times as needed)

CHORUS END:
  A B
e|------|
B|------|
G|------|
D|------|
A|7--9--|
E|5--7--| (x3)
(strum as many times as needed)

ENDING RIFF:
  A B E
e|-----------|
B|-----------|
G|-----------|
D|--------9--|
A|7---9---7--|
E|5---7------| (slowed down with palm mutes)
(once again, strum as many times as needed)

Lyrics:
I look into her eyes, I get nothing but a stare
Her body's difficult, it's like she's never even here
Silky skin turning blue, her rotting flesh will speak
About this torso on the couch that never smiles at me

Come back to me, Nadine (whoa-oh-oh)
Come back to me, Nadine (whoa-oh-oh)
Come back to me, Nadine (whoa-oh-oh)
Come back.. Come back.. Come back..

When I see her arms, I just want to embrace
Knowing now that she's gone, there's a sad look on my face
But I did what I had to do, nobody will ever know
About this torso on the couch that starts to decompose

Come back to me, Nadine (whoa-oh-oh)
Come back to me, Nadine (whoa-oh-oh)
Come back to me, Nadine (whoa-oh-oh)
Come back.. Come back..
Come back to me, Nadine (whoa-oh-oh)
Come back to me, Nadine (whoa-oh-oh)
Come back to me, Nadine (whoa-oh-oh)
Come back.. Come back..
Come back to me, Nadine.

| /  slide up
| \  slide down
| h  hammer-on
| p  pull-off
| ~  vibrato
| +  harmonic
| x  Mute note
===============================================================================
Tap to rate this tab
# A B C D E F G H I J K L M N O P Q R S T U V W X Y Z