Song name
# A B C D E F G H I J K L M N O P Q R S T U V W X Y Z

Blitzkid - The Trunk chords

Highlighted       Show chord diagrams
----------------------------------------------------------------------------
			     THE TRUNK - Blitzkid
----------------------------------------------------------------------------

This is a great Blitzkid song off of Five Celars Below. My favourite song off the album, 
definitely one of my favourite Blitzkid songs ever. It's really easy, only 2 riffs to 
just like the classic Blitzkid songs.

Tabbed by: ViolentWorld138
Email: Allmurder.Allguts.Allfun@Hotmail.com

Tuning: Half-step down (D# G# C# F# A# D#)

Intro/Outro:
  C   G   A   F E
e|----------------|
B|----------------|
G|5---------------|
D|5---5---7---3-2-|
A|3---5---7---3-2-|
E|----3---5---1-0-|

Verse:
(Same riff as the intro)
  C   G   A   F E
e|----------------|
B|----------------|
G|5---------------|
D|5---5---7---3-2-|
A|3---5---7---3-2-|
E|----3---5---1-0-|

Chorus:
  F   A   G   A G
e|----------------|
B|----------------|
G|----------------|
D|3---7---5---7-3-|
A|3---7---5---7-3-|
E|1---5---3---5-5-|

* End on an A chord *

Songflow:
Intro  [x2]
Verse  [x4]
Verse2 [x2] (the one with "awww")
Verse  [x4]
Chorus [x4]
Verse  [x4]
Chorus [x8]
Verse  [x4]
Outro  [x4]


| /  slide up
| \  slide down
| h  hammer-on
| p  pull-off
| ~  vibrato
| +  harmonic
| x  Mute note
============================================================================
Tap to rate this tab
 
# A B C D E F G H I J K L M N O P Q R S T U V W X Y Z