Blitzkid - My Dying Bride tab

My Dying Bride
Blitzkid

Sorry to say that the other guitar tab was...well..crap. 
Keep in mind I'm tabbing this while my guitar is in standard tuning
but I think I got it right when you tune it 1/2 step down. 
   
1/2 step down
            
Intro/Verse: x4 
    [                pm              ]
|------------------------------------------|
|------------------------------------------|
|--------------------1111111111111111------|
|-6-6666666-77777777-2222222222222222--6-9-|
|-4-4444444-77777777-2222222222222222--6-9-|
|-----------55555555-0000000000000000--4-7-|

then

    [          pm             ]
|------------------------------------------|
|------------------------------------------|
|--------------------1111111111111111------|
|-6-6666666-77777777-2222222222222222--6-9-|
|-4-4444444-77777777-2222222222222222--6-9-|
|-----------55555555-0000000000000000--4-7-|


Chorus: x2

|----------------------------------------------------------------------|
|----------------------------------------------------------------------|
|-----------------------------------------------------111111111111-----|
|-666666666666s9999-9999999999999999-7777777777777777-222222222222-6-9-|
|-444444444444s7777-9999999999999999-7777777777777777-222222222222-6-9-|
|-------------------7777777777777777-5555555555555555-000000000000-4-7-|


Verse: x3
    [                pm              ]
|------------------------------------------|
|------------------------------------------|
|--------------------1111111111111111------|
|-6-6666666-77777777-2222222222222222--6-9-|
|-4-4444444-77777777-2222222222222222--6-9-|
|-----------55555555-0000000000000000--4-7-|

then

    [          pm             ]
|------------------------------------------|
|------------------------------------------|
|--------------------1111111111111111------|
|-6-6666666-77777777-2222222222222222--6-9-|
|-4-4444444-77777777-2222222222222222--6-9-|
|-----------55555555-0000000000000000--4-7-|


Chorus: x2

|----------------------------------------------------------------------|
|----------------------------------------------------------------------|
|-----------------------------------------------------111111111111-----|
|-666666666666s9999-9999999999999999-7777777777777777-222222222222-6-9-|
|-444444444444s7777-9999999999999999-7777777777777777-222222222222-6-9-|
|-------------------7777777777777777-5555555555555555-000000000000-4-7-|

Verse: x3
    [                pm              ]
|------------------------------------------|
|------------------------------------------|
|--------------------1111111111111111------|
|-6-6666666-77777777-2222222222222222--6-9-|
|-4-4444444-77777777-2222222222222222--6-9-|
|-----------55555555-0000000000000000--4-7-|

then

    [          pm             ]
|------------------------------------------|
|------------------------------------------|
|--------------------1111111111111111------|
|-6-6666666-77777777-2222222222222222--6-9-|
|-4-4444444-77777777-2222222222222222--6-9-|
|-----------55555555-0000000000000000--4-7-|


Chorus: x2

|----------------------------------------------------------------------|
|----------------------------------------------------------------------|
|-----------------------------------------------------111111111111-----|
|-666666666666s9999-9999999999999999-7777777777777777-222222222222-6-9-|
|-444444444444s7777-9999999999999999-7777777777777777-222222222222-6-9-|
|-------------------7777777777777777-5555555555555555-000000000000-4-7-|

Solo:
 
|----------------------------------------------|
|----------------------------------------------|
|----------------------------------------------|
|----------------------------------------------|
|-777-666-777-666-77-99--777-666----777-666----|
|--------------------------------77---------77-|

*note 1111 is two 11s not 1s 
|------------------------------------------------|
|------------------------------------------------|
|------------------------------------------------|
|------------------------------------------------|
|-777-666-777-666-77-99--777-666-777-666-77s1111-|
|------------------------------------------------|

|-------------------------------------------------------------------|
|-------------------------------------------------------------------|
|-----------------------------------------------------------------1~|
|-----------------------------------------------777777777777-6-9--2~|
|-777-666-777-666-77-99--777-666----777-666-----777777777777-6-9--2~|
|--------------------------------77---------77--555555555555-4-7--0~|

end note:

Full bend 8 to 10 then slide down the neck 
|---------|
|---------|
|-8fb10s1-|
|---------|
|---------|
|---------|

Long live the horror!

enjoy...
Tap to rate this tab
 
# A B C D E F G H I J K L M N O P Q R S T U V W X Y Z