Blitzkid - Sandbox tab

Intro/Verse/Chorus
E|----------------------------------------------------------------------|
B|------------------6-66666666666666------------------4-44444444444444--|
G|-3-33333333333333-5-55555555555555------------------3-33333333333333--|
D|-3-33333333333333-3-33333333333333-5-55555555555555-1-11111111111111--|
A|-1-11111111111111------------------5-55555555555555-------------------|
E|-----------------------------------3-33333333333333-------------------|


Pre-chorus
E|----------------------------------------------------------------------|
B|-6-66666666666666------------------4-44444444444444-------------------|
G|-5-55555555555555------------------3-33333333333333-3-33333333333-22--|
D|-3-33333333333333-5-55555555555555-1-11111111111111-3-33333333333-22--|
A|------------------5-55555555555555------------------1-11111111111-00--|
E|------------------3-33333333333333------------------------------------|

E|----------------------------------------------------------------------|
B|------------------4-44444444444444------------------6-66666666666666--|
G|------------------3-33333333333333-3-33333333333333-5-55555555555555--|
D|-5-55555555555555-1-11111111111111-3-33333333333333-3-33333333333333--|
A|-5-55555555555555------------------1-11111111111111-------------------|
E|-3-33333333333333-----------------------------------------------------|

Bridge
E|----------------------------------------------------------------------|
B|-----------------------------------6-66666666666666-------------------|
G|------------------3-33333333333333-5-55555555555555-5-55555555555555--|
D|-5-55555555555555-3-33333333333333-3-33333333333333-5-55555555555555--|
A|-5-55555555555555-1-11111111111111------------------3-33333333333333--|
E|-3-33333333333333-----------------------------------------------------|



Structure
Intro - 2x (band comes in on 2nd)
Verse - 2x (palm muted until final chords on 2nd run)
Pre-chorus - 1x
Chorus - 2x
Verse - 2x
Pre-chorus - 1x
Chorus - 2x
Bridge - 2x
Chorus - 2x (played same as intro)
Chorus - 6x (cut out last chords on final)

It's a weird song, but if you listen to it, you'll understand what I'm saying.  
It's actually really easy.
Tap to rate this tab
 
# A B C D E F G H I J K L M N O P Q R S T U V W X Y Z