Blitzkid - Body Snatchers tab

Body Snatchers By Blitzkid
Standard Tunning EADGBe
Tabbed By "The Muddman" Jovan Sanchez

Heres my 2d song by Blitzkid tabbed by me, surprised no
one tabbed it, its kinda easy nothin too difficult hope u
guys effing love it cause this song rocks!!


INTRO
|--------------------------------------------|
|--------------------------------------------|
|--------------------------------------------|
|--------------------------------------------|
|-4----Let Ring------------------------------|
|-2------------------------------------------|

VERSE
|--------------------------------------------|
|--------------------------------------------|
|--------------------------------------------|
|--------------------------------------------|x4
|-4--44444--4--44444--9--99999--9--99999-----|
|-2--22222--2--22222--7--77777--7--77777-----|

CHORUS
|--------------------------------------------------------|
|--------------------------------------------------------|
|--------------------------------------------------------|
|--------------------------------------------------------|x3
|--11--1111111111--11--1111111111--9-99999--9--99999-----|
|--9---9-9-9-9-9---9---9-9-9-9-9---7-77777--7--77777-----|

|--------------------------------------------------------|
|--------------------------------------------------------|
|--------------------------------------------------------|
|--------------------------------------------------------|
|--11--1111111111--11--1111111111--11-1111111111---------|
|--9---9-9-9-9-9---9---9-9-9-9-9---9--9-9-9-9-9----------|

VERSE 2
|--------------------------------------------|
|--------------------------------------------|
|--------------------------------------------|
|--------------------------------------------|x4
|-4--44444--4--44444--9--99999--9--99999-----|
|-2--22222--2--22222--7--77777--7--77777-----|

CHORUS 2
|--------------------------------------------------------|
|--------------------------------------------------------|
|--------------------------------------------------------|
|--------------------------------------------------------|x3
|--11--1111111111--11--1111111111--9-99999--9--99999-----|
|--9---9-9-9-9-9---9---9-9-9-9-9---7-77777--7--77777-----|


BRIDGE
|-------------------------------------------------|
|-------------------------------------------------|
|-------------------------------------------------| 
|-------------------------------------------------|-------------|
|---11-1111111111---11-1111111111--11-1111111111--|             |
|----9-9-9-9-9-9----9--9-9-9-9-9----9-9-9-9-9-9---|             |
                                                                |x3
|------------------------------------------------------------|  |
|------------------------------------------------------------|  |
|------------------------------------------------------------|  | 
|------------------------------------------------------------|--|
|---11--13--14-1414141414--14-1414141414--9-99999--9-99999---|
|---9---11--12-1212121212--12-1212121212--7-77777--7-77777---|

|--------------------------------------------|
|--------------------------------------------|
|--------------------------------------------|
|--------------------------------------------|*End bridge with this*  
|-11-1111111111--11-1111111111---11--11--11--|
|--9-9-9-9-9-9---9--9-9-9-9-9-----9---9---9--|


OUTRO DUET

|--------------------------------------------|
|--------------------------------------------|
|--------------------------------------------|
|--------------------------------------------|x8
|-4--44444--4--44444--9--99999--9--99999-----|
|-2--22222--2--22222--7--77777--7--77777-----|

|--------------------------------------------|
|--------------------------------------------|
|--3--3--3-44--4--4--------------------------|
|----4--4----4--4--4-------------------------| *come in on x4*
|--------------------------------------------| *dont play smooth*
|--------------------------------------------| *listen 2 song 4 the pauses*

Thats about it, hopefully im not overlookin anything
im thinkin of adding the lyrics but idk
if people like that, does it make the tab feel too crowded???
ill probly add them any way idk but yea, peace...


Tap to rate this tab
 
# A B C D E F G H I J K L M N O P Q R S T U V W X Y Z