Song name
# A B C D E F G H I J K L M N O P Q R S T U V W X Y Z

Blitzkid - Cedar Bluff tab

Blitzkid - Cedar Bluff

By: skyturnedred@gmail.com

Tuning one-step down: DGCFAD

Can easily be played in standard tuning also,
but I think Blitzkid uses D-tuning mostly these days.


. = Palm-mute


INTRO:
|------------------------------------|
|------------------------------------|
|-88-----8-8-8888-8-8-8888-----------|
|-88-----8-8-8888-8-8-8888-----------|
|-66-----6-6-6666-6-6-6666-88888888--|
|--------------------------66666666--|
                           ........
 
VERSE:
|--------------------------------------|
|--------------------------------------|
|-88888888-55555555--------------------|
|-88888888-55555555-66666666-88888888--| x2
|-66666666-33333333-66666666-88888888--|
|-------------------44444444-66666666--|


CHORUS:
|----------------------------------------|
|----------------------------------------|
|-----------8888-5555-----------88888888-|
|-6666-8888-8888-5555-6666-8888-88888888-|
|-6666-8888-6666-3333-6666-8888-66666666-|
|-4444-6666-----------4444-6666----------|
 "Come on mom and dad..."

|----------------------------------------|
|----------------------------------------|
|-----------8888-5555--------------------|
|-6666-8888-8888-5555-66666666-88888888--|
|-6666-8888-6666-3333-66666666-88888888--|
|-4444-6666-----------44444444-66666666--|
 "Make no mistake..."


TRANSITION:
|--------------------|
|--------------------|
|-88888888-----------|
|-88888888-----------|
|-66666666-88888888--|
|----------66666666--|
           ........


Repeat VERSE
Repeat CHORUS


OUTRO Guitar1:
|--------------------------------------|
|--------------------------------------|
|-88888888-55555555--------------------|
|-88888888-55555555-66666666-88888888--|
|-66666666-33333333-66666666-88888888--|
|-------------------44444444-66666666--|

|--------------------------------------|
|--------------------------------------|
|-88888888-55555555--------------------|
|-88888888-55555555-66666666-8---------| "Happy birthday
|-66666666-33333333-66666666-8---------|  to me!"
|-------------------44444444-6---------|

|----------------------------------------|
|----------------------------------------|
|-88888888-55555555-----------8-888---8--|
|-88888888-55555555-6666-8888-8-888-8-8--|
|-66666666-33333333-6666-8888-6-666-8-6--|
|-------------------4444-6666-------6----|

OUTRO Guitar2:
|--------6-------|
|----------6-----| Something like that,
|-7-8-8------8---| repeat as needed.
|----------------|
|----------------|
|----------------|
Tap to rate this tab
 
# A B C D E F G H I J K L M N O P Q R S T U V W X Y Z