Blitzkid - My Dying Bride tab

Blitzkid - My Dying Bride

By: skyturnedred@gmail.com

Tuning one-step down: DGCFAD

From the album Anatomy of Renanimation.


. = Palm-mute


INTRO:
|-------------------------------------|
|-------------------------------------|
|-6--------------------------------4--|
|-6-666666-22222222--------------6-4--|
|-4-444444-00000000-222222222222-6-2--|
|-------------------000000000000-4----|
    ...... ........ ............

|-------------------------------------|
|-------------------------------------|
|-6--------2-----------------------4--|
|-6-666666-2-222222-2------------6-4--|
|-4-444444-0-000000-2-2222222222-6-2--|
|-------------------0-0000000000-4----|
    ......   ......   ..........


VERSE Guitar1:

|-------------------------------------|
|-------------------------------------|
|-6--------2-----------------------4--| x3
|-6-666666-2-222222-2------------6-4--|
|-4-444444-0-000000-2-2222222222-6-2--|
|-------------------0-0000000000-4----|
    ......   ......   ..........
 "Sullen air, whispers of my plans for you tonight,
  Hush sweet princess weíre gonna, we're gonna take a drive.
  Got an axe in the back of the seat but donít you mind

|-------------------------------------|
|-------------------------------------|
|-6--------2-----------------------4--|
|-6-666666-2-222222-222222222222-6-4--|
|-4-444444-0-000000-222222222222-6-2--|
|-------------------000000000000-4----|
    ......   ......
 "Just take my hand, please understand that itís gonna be alright"


CHORUS:
|----------------------------------------------------------------------|
|----------------------------------------------------------------------|
|-6-66666666666-999--------------------------------------------------4-|
|-6-66666666666-999-9999999999999999-7777777777777777-222222222222-6-4-| x2
|-4-44444444444-777-9999999999999999-7777777777777777-222222222222-6-2-|
|-------------------7777777777777777-5555555555555555-000000000000-4---|
  "Look at the blade, look into my eyes
   Iím gonna love you, my dying bride"


Repeat VERSE:
    "I really do care for you, yeah thereís somethiní deep inside
     That fights against the nature of the bloodlust I hide
     But in the pulse of nature, I hear the pulsiní in my brain
     Although my heart harbors love songs they are crippled and insane"


Repeat CHORUS


VERSE3:
|-------------------------------------|
|-------------------------------------|
|-6--------2-----------------------4--| x3
|-6-666666-2-222222-2------------6-4--|
|-4-444444-0-000000-2-2222222222-6-2--|
|-------------------0-0000000000-4----|
    ......   ......   ..........
 "Put your lips against mine girl theyíre playiní our song
  Turn around take my hand and I swear it wonít take long
  One day I will join you when this illness soon subsides"

|-------------------------------------|
|-------------------------------------|
|-6--------2-----------------------4--|
|-6-666666-2-222222--------------6-4--|
|-4-444444-0-000000---(pause)----6-2--|
|--------------------------------4----|
    ......   ......
 "And Iíll love you with the heart that
  Was shadowed by my mind"


Repeat CHORUS


OUTRO Guitar1:
|----------------------------------------------------------------------|
|----------------------------------------------------------------------|
|-6-66666666666-999--------------------------------------------------4-|
|-6-66666666666-999-9999999999999999-7777777777777777-222222222222-6-4-|
|-4-44444444444-777-9999999999999999-7777777777777777-222222222222-6-2-|
|-------------------7777777777777777-5555555555555555-000000000000-4---|

|------------------------------------------------------------------------|
|------------------------------------------------------------------------|
|-6-66666666666-999--------------------------------------------------4---|
|-6-66666666666-999-9999999999999999-7777777777777777-222222222222-6-4-2-|
|-4-44444444444-777-9999999999999999-7777777777777777-222222222222-6-2-2-|
|-------------------7777777777777777-5555555555555555-000000000000-4---0-|



I'll see if I can figure out the Guitar2 on the verses and outro later.
Tap to rate this tab
 
# A B C D E F G H I J K L M N O P Q R S T U V W X Y Z