Song name
# A B C D E F G H I J K L M N O P Q R S T U V W X Y Z

Blitzkid - Blutsauger tab

Half step down

Intro lead guitar

eb|----------------------------|
Bb|-------------8--------------|
Gb|----------------------------|
Db|-/10--9--10-----10--9--10~--|
Ab|----------------------------|
Eb|----------------------------|

lead cont.

eb|---------------------------------------------------------------|
Bb|----------8-------------------8--------------------8-----------|
Gb|---------------------------------------------------------------|
Db|---9--10-----10--9--7~--9--10-----10--9--10~--9--10----10--9--7|
Ab|---------------------------------------------------------------|
Eb|---------------------------------------------------------------|

Rhythm guitar intro

eb|-----------------------------------------|
Bb|-----------------------------------------|
Gb|---------------------454-----------------|
Db|-7-77---3-33---5-55--454-----------------|
Ab|-7-77---3-33---5-55--232-----------------|
Eb|-5-55---1-11---3-33----------------------|

this is the way nathan bane and TB monstrosity were playing it live.

-Corpsecorp




************************************

| /   slide up
| \   slide down
| h   hammer-on
| p   pull-off
| ~   vibrato
| +   harmonic
| x   Mute note
| b   Bend
| pb  Pre-bend
| br  Bend release
| pbr Pre-bend release
| brb Bend release bend

************************************
Tap to rate this tab
 
# A B C D E F G H I J K L M N O P Q R S T U V W X Y Z