Song name
# A B C D E F G H I J K L M N O P Q R S T U V W X Y Z

Blitzkid - She Dominates tab

Song:She Dominates
Album:Trace Of A Stranger
Artist:Blitzkid
Genre:Horror Punk
Year:2003
Tuning: Whole-Step Down (D,G,C,F,A,D)

Intro Pt 1
D------|
A------|
F------|
C------|
G------|
D-14\--

Intro Pt 2 x4
D------------------------------------------|
A------------------------------------------|
F---------------------8-88-888--------3-5--|
C-5-55-555--5-55-555--8-88-888--3-33--3-5--|
G-5-55-555--5-55-555--6-66-666--3-33--1-3--|
D-3-33-333--3-33-333------------1-11-------|

Verse 1 x3
D---------------------|
A---------------------|
F-------8-8-----------|
C-5-5---8-8x4--3-3----|
G-5-5x9-6-6----3-3x4--|
D-3-3-----.----1-1----|
    .            .
Pre-Interlude
D--------------------------------|
A---------Play Open--------------|
F---------8-88-888----Play Open--|
C-5-5-----8-88-888----3-33-333---|
G-5-5x9---6-66-666----3-33-333---|
D-3-3-----------------1-11-111---|
    .
Interlude 1 x2
D------------------------------------------|
A------------------------------------------|
F---------------------8-88-888--------3-5--|
C-5-55-555--5-55-555--8-88-888--3-33--3-5--|
G-5-55-555--5-55-555--6-66-666--3-33--1-3--|
D-3-33-333--3-33-333------------1-11-------|

Verse 2
D---------------------|
A---------------------|
F-------8-8-----------|
C-5-5---8-8x4--3-3----|
G-5-5x9-6-6----3-3x4--|
D-3-3-----.----1-1----|
    .            .
Pre-Chorus 1
D-------------------------------------------------------------|
A-------------------------------------------------------------|
F-8-88-888--8-88-888----------------------8-88-888------------|
C-8-88-888--8-88-888--5-55-555--5-55-555--8-88-888--3-33-333--|
G-6-66-666--6-66-666--5-55-555--5-55-555--6-66-666--3-33-333--|
D---------------------3-33-333--3-33-333------------1-11-111--|

Chorus 1 Pt.1 x2
D---------------------------------------------|
A---------------------------------------------|
F-----------8-88-888--10--1010--101010--------|
C-5-55-555--8-88-888--10--1010--101010--1010--|
G-5-55-555--6-66-666---8---8-8---8-8-8--1010--|
D-3-33-333-------------------------------8-8--|

Chorus 1 Pt.2
D-------------------------------------------|
A-------------------------------------------|
F-----------8-88-888------------------------|
C-5-55-555--8-88-888--3-33-333--5-55-555-3--|
G-5-55-555--6-66-666--3-33-333--5-55-555-3--|
D-3-33-333------------1-11-111--3-33-333-1--|

D--------------------------------------|
A--------------------------------------|
F-----------8-88-888--10--1010-101010--|
C-5-55-555--8-88-888--10--1010-101010--|
G-5-55-555--6-66-666---8---8-8--8-8-8--|
D-3-33-333-----------------------------|

Solo (Rhythm) x2
D------------------------------------------|
A------------------------------------------|
F---------------------8-88-888--------3-5--|
C-5-55-555--5-55-555--8-88-888--3-33--3-5--|
G-5-55-555--5-55-555--6-66-666--3-33--1-3--|
D-3-33-333--3-33-333------------1-11-------|

Then:
-Verse 3 x3
-Pre Interlude
-Intro Pt.2 x2
-Pre Chorus 2
-Chorus 2

Then:

Outro Pt.1 x4
D---------------------------------------------------------|
A---------------------------------------------------------|
F-----------8-88-888--10--1010-101010--10-1010------------|
C-5-55-555--8-88-888--10--1010-101010--10-1010-1010-8-10--|
G-5-55-555--6-66-666---8---8-8--8-8-8---8--8-8-1010-8-10--|
D-3-33-333--------------------------------------8-8-6--8--|

Outro Pt.2 x2
D-------------------------------|
A-------------------------------|
F-----------8-88-888-------3-5--|
C-5-55-555--8-88-888-3-33--3-5--|
G-5-55-555--6-66-666-3-33--1-3--|
D-3-33-333-----------1-11-------|

Outro Pt.3
D-----------------|
A-----------------|
F-----------------|
C-5~~~~~~~~~~-5\--|
G-5~~~~~~~~~~-5\--|
D-3~~~~~~~~~~-3\--|

Song Order:
-Intro Pt.1
-Intro Pt.2 x4
-Verse 1 x3
-Pre Interlude 1
-Interlude 1 x2
-Verse 2 x3
-Pre Chorus 1
-Chorus 1 Pt.1
-Chorus 1 Pt.2
-Solo (Rhythm) x2
-Verse 3 x3
-Pre Interlude
-Intro Pt.2 x2
-Pre Chorus
-Chorus 2
-Outro Pt.1 x4
-Outro Pt.2 x2
-Outro Pt.3

Key:
\=Slide Down
.=Palm Mute

Here Is A Link If You Wanna Play Along To The Song:
http://www.youtube.com/watch?v=gMn6z0yEdNM

*I Hope You All Enjoyed The Tab Of The Song
Please Rate And Comment.
Tap to rate this tab
# A B C D E F G H I J K L M N O P Q R S T U V W X Y Z