Song name
# A B C D E F G H I J K L M N O P Q R S T U V W X Y Z

Blitzkid - Hills Have Eyes tab


Intro/Verse

E--------------------------------------------------------|
B--------------------------------------------------------|
G--------------------------------------------------------|
D--------------------------------------------------------|
A---6--6-6-6-6-6--5--5-5-5-5-5--4--4-4-4-4-4-4-4-4-4-6-4-|
E---4--4-4-4-4-4--7--7-7-7-7-7--2--2-2-2-2-2-2-2-2-2-4-2-|
                                   . . . . . . . . .
                                      palm-muted

Bridge

E--------------------------------------------------------|
B--------------------------------------------------------|
G--------------------------------------------------------|
D--------------------------------------------------------|
A---7--7-7-7-7-7-7-7-7-7--10-9--6--6-6-6-6-6-6-6-6-------|
E---5--5-5-5-5-5-5-5-5-5--8--7--4--4-4-4-4-4-4-4-4-------|
       . . . . . . . . .        .  . . . . . . . .
          palm-muted                palm-muted

that's everything (minus two small solos)
Tap to rate this tab
 
# A B C D E F G H I J K L M N O P Q R S T U V W X Y Z