Song name
# A B C D E F G H I J K L M N O P Q R S T U V W X Y Z

Blitzkid - She Dominates tab

Help us improve GuitareTab! Take a short survey!
-------------------------------------------------------------------------------
			     She Dominates - Blitzkid
-------------------------------------------------------------------------------
Tabbed by: Doc Turtle
Email: Smilealittleformeplease@hotmail.com

Tuning: Standard

               Intro
e|---------------------------------------------------------------------------|
B|---------------------------------------------------------------------------|
G|-----------7------2-----4/6------------------------------------------------|
D|---4-------7(x8)-2(x4)-4/6---repeat 4 times-------------------------------|
A|---4(x16)--5------0-----2/4------------------------------------------------|
E|---2-----------------------------------------------------------------------|
               
e|---------------------------------------------------------------------------|
B|---------------------------------------------------------------------------|
G|-------------7-7------2-2----------------------------------7-----2---------|
D|---4-4-------7-7(x7)-2-2(x7)repeat 3 times-----4-4-------7(x8)2(x8)-----|
A|---4-4(x15)-5-5------0-0------------------------4-4(x15)--5-----0---------|
E|---2-2---------*--------*------------------------2-2-----------------------|
       *                                             *
e|---------------------------------------------------------------------------|
B|---------------------------------------------------------------------------|
G|-----------7------2-----4/6------------------------------------------------|
D|---4-------7(x8)-2(x4)-4/6---repeat 2 times-------------------------------|
A|---4(x16)--5------0-----2/4------------------------------------------------|
E|---2-----------------------------------------------------------------------|

e|---------------------------------------------------------------------------|
B|---------------------------------------------------------------------------|
G|-------------7-7------2-2----------------------------------7-----2---------|
D|---4-4-------7-7(x7)-2-2(x7)repeat 3 times-----4-4-------7(x8)2(x8)-----|
A|---4-4(x15)-5-5------0-0------------------------4-4(x15)--5-----0---------|
E|---2-2---------*--------*------------------------2-2-----------------------|
       *                                             *

e|---------------------------------------------------------------------------|
B|---------------------------------------------------------------------------|
G|---7-------------7-----2-----4/6-------------------------------------------|
D|---7(x8)--4------7(x8)-2(x6)-4/6-------------------------------------------|
A|---5------4(x8)--5-----0-----2/4-------------------------------------------|
E|----------2----------------------------------------------------------------|
   {--------slower----------}
e|---------------------------------------------------------------------------|
B|---------------------------------------------------------------------------|
G|----------7------2------4/6-----------------------7-----2------------------|
D|---4------7(x8)-2(x14)-4/6repeat 2 times--4-----7(x8)-2(x8)-4-----2/4----|
A|---4(x8)--5------0------2/4-----------------4(x8)-5-----0-----4(x6)-2/4----|
E|---2----------------------------------------2-----------------2-----0/2----|

e|---------------------------------------------------------------------------|
B|---------------------------------------------------------------------------|
G|----------7------2-----4/6-------------------------------------------------|
D|---4------7(x8)2(x14)-4/6-------------------------------------------------|
A|---4(x8)--5------0-----2/4-------------------------------------------------|
E|---2-----------------------------------------------------------------------|

UNTABBED SOLO-----??????????

e|---------------------------------------------------------------------------|
B|---------------------------------------------------------------------------|
G|-------------7-7------2-2----------------------------------7-----2---------|
D|---4-4-------7-7(x7)-2-2(x7)repeat 3 times-----4-4-------7(x8)2(x8)-----|
A|---4-4(x15)-5-5------0-0------------------------4-4(x15)--5-----0---------|
E|---2-2---------*--------*------------------------2-2-----------------------|
       *                                             *

e|---------------------------------------------------------------------------|
B|---------------------------------------------------------------------------|
G|-----------7------2-----4/6------------------------------------------------|
D|---4-------7(x8)-2(x4)-4/6---repeat 2 times-------------------------------|
A|---4(x16)--5------0-----2/4------------------------------------------------|
E|---2-----------------------------------------------------------------------|

e|---------------------------------------------------------------------------|
B|---------------------------------------------------------------------------|
G|-------------7-7------2-2----------------------------------7-----2---------|
D|---4-4-------7-7(x7)-2-2(x7)repeat 3 times-----4-4-------7(x8)2(x8)-----|
A|---4-4(x15)-5-5------0-0------------------------4-4(x15)--5-----0---------|
E|---2-2---------*--------*------------------------2-2-----------------------|
       *                                             *

e|---------------------------------------------------------------------------|
B|---------------------------------------------------------------------------|
G|---7-------------7-----2-----4/6-------------------------------------------|
D|---7(x8)--4------7(x8)-2(x6)-4/6-------------------------------------------|
A|---5------4(x8)--5-----0-----2/4-------------------------------------------|
E|----------2----------------------------------------------------------------|
   {--------slower----------}
e|---------------------------------------------------------------------------|
B|---------------------------------------------------------------------------|
G|----------7------2------4/6-----------------------7-----2------------------|
D|---4------7(x8)-2(x14)-4/6repeat 2 times--4-----7(x8)-2(x8)-4-----2/4----|
A|---4(x8)--5------0------2/4-----------------4(x8)-5-----0-----4(x6)-2/4----|
E|---2----------------------------------------2-----------------2-----0/2----|

e|---------------------------------------------------------------------------|
B|---------------------------------------------------------------------------|
G|----------7------2------4/6------------------------------------------------|
D|---4------7(x8)-2(x14)-4/6------------------------------------------------|
A|---4(x8)--5------0------2/4------------------------------------------------|
E|---2-----------------------------------------------------------------------|

e|---------------------------------------------------------------------------|
B|---------------------------------------------------------------------------|
G|----------7------2------4/6------------------------------------------------|
D|---4------7(x8)-2(x14)-4/6repeat 4 times---------------------------------|
A|---4(x8)--5------0------2/4------------------------------------------------|
E|---2-----------------------------------------------------------------------|


e|---------------------------------------------------------------------------|
B|---------------------------------------------------------------------------|
G|-----------7------2-----4/6------------------------------------------------|
D|---4-------7(x8)-2(x4)-4/6---repeat 2 times-end on 4----------------------|
A|---4(x16)--5------0-----2/4-------------------------4----------------------|
E|---2------------------------------------------------2----------------------|


| /  slide up
| \  slide down
| h  hammer-on
| p  pull-off
| ~  vibrato
| +  harmonic
| x  Mute note
  *  Palm mute
===============================================================================
		Questions comments concerns? E-mail at smilealittleformeplease@hotmail.com Thanks!
Related for She Dominates tab