Guitaretab - guitar tabs
Song name
# A B C D E F G H I J K L M N O P Q R S T U V W X Y Z

Blitzkid - Teenage Necrophilian Love tab

Tabbed by Robin Graves

I made a some mistakes on the last one, this one is the real tab.

Blitzkid: Teenage Necrophyllian Love

Intro: 7x

Eb------------------------------------------------------|
Bb--------9-----------5---------------------------------|
Gb------9---9-------6---6----------6-------------8------|
Db----9-------9---6-------6------7---7---------9---9----|
Ab--7-----------4--------------7-------7-----9-------9--|
Eb---------------------------5-------------7------------|

Play this riff once

Eb--------------------------------------------------|
Bb--------9-----------5-----------------------------|
Gb------9---9-------6---6---------6-----------------|
Db----9-------9---6-------6-----7---7---------------|
Ab--7-----------4-------------7-------7-9~---|
Eb--------------------------5------------7~---------|

Verse:6x

Eb-------------------------------|
Bb-------------------------------|
Gb-------------------------------|
Db--99-999-66-666----------------|
Ab--77-777-44-444-77-777-99-999--|
Eb----------------55-555-77-777--|

Pre-Chorus:3x

Eb-----------------|
Bb-----------------|
Gb-----------------|
Db-----------------|
Ab--77-777-99-999--|
Eb--55-555-77-777--|

Chorus:2x

Eb-------------------------------|
Bb-------------------------------|
Gb-------------------------------|
Db--99-999-66-666----------------|
Ab--77-777-44-444-77-777-99-999--|
Eb----------------55-555-77-777--|

Play this riff once
[ Tab from: http://www.guitaretab.com/b/blitzkid/87234.html ]
Eb------------------|
Bb------------------|
Gb------------------|
Db--99-999-999-999--|
Ab--77-777-777-777--|
Eb------------------|

Bridge:(2x)(palm-mute)

Eb-----------------------------------------------|
Bb-----------------------------------------------|
Gb-----------------------------------------------|
Db--9999-8-6-6666-4-2-2222-4-6-------------------|
Ab--7777-6-4-4444-2-0-0000-2-4--9999-7-6---------|
Eb------------------------------7777-5-4--|

Play this the 3rd time(palm-mute all except for pinch harmonic on the 4th fret)

Eb------------------------------------------------|
Bb------------------------------------------------|
Gb------------------------------------------------|
Db--9999-8-6-6666-4-2-2222-4-6--------------------|
Ab--7777-6-4-4444-2-0-0000-2-4--9999-7------------|
Eb------------------------------7777-5-4*--|

Play this once(palm-mute)

Eb-----------------------------------------------|
Bb-----------------------------------------------|
Gb-----------------------------------------------|
Db--9999-8-6-6666-4-2-2222-4-6-------------------|
Ab--7777-6-4-4444-2-0-0000-2-4--9999-7-6---------|
Eb------------------------------7777-5-4--|

Eb-------------------------------------------------|
Bb-------------------------------------------------|
Gb-------------------------------------------------|
Db--9999-8-6-6666-4-2-2222-4-6-----------9~--------|
Ab--7777-6-4-4444-2-0-0000-2-4--9999-7-6-7~--------|
Eb------------------------------7777-5-4----|

End:

Eb------------------------------|
Bb------------------------------|
Gb----------9b------------------|
Db-----6-7-----79~-9~----|
Ab--7------------7~-7~----------|
Eb------------------------------|
Related for Teenage Necrophilian Love tab