Guitaretab - guitar tabs
Song name
# A B C D E F G H I J K L M N O P Q R S T U V W X Y Z

Blitzkid - Creature Walks Among Us tab

Tabbed by Robin Graves

The Creature Walks Among Us

listen to the song for palm-mutes,i'm rushed for time so i'm not putting them in, but 
easy to hear where they're played

Intro/ First Verse:

E-----------------------------------------------------------------------|
B-----------------------------------------------------------------------|
G-----------------------------------------------------------------------|
D-----------------44-444-444-444----------------------------------------|
A--66-666-666-666-22-222-222-222-44-444-444-444-6-666-4-66666-2---------|
E--44-444-444-444----------------22-222-222-222-4-444-2-44444-0--|

Pre-Chorus:(3x)
[ Tab from: http://www.guitaretab.com/b/blitzkid/87386.html ]
E--------------------------------------|
B--------------------------------------|
G--------------------------------------|
D--44-444-66-666-----------------------|
A--22-222-44-444-66-666-66-666---------|
E----------------44-444-44-444--|

4th Time:

E----------------------------------------------|
B----------------------------------------------|
G----------------------------------------------|
D--44-444--88-888-88-888-66-666-666-666--------|
A--22-222--66-666-66-666-44-444-444-444--------|
E----------------------------------------|


Chorus:

E---------------------------------|
B---------------------------------|
G---------------------------------|
D----------66-666-44-444-444-444--|
A--44-444--44-444-22-222-222-222--|
E--22-222-------------------------|

End:

E----
B----
G----
D----
A4~-
E2~-
Related for Creature Walks Among Us tab