Song name
# A B C D E F G H I J K L M N O P Q R S T U V W X Y Z

Blitzkid - Terror At The Haunted House tab

-------------------------------------------------------------------------------
			    Terror At The Haunted House - Blitzkid
-------------------------------------------------------------------------------
Tabbed by:Luis Alvarez
Email:goingdown2die@yahoo.com

  Verse & Chorus

e|----2----2----5-----------------------------------------------------------|
B|----3----2----5-----------------------------------------------------------|
G|----4----3----6-----------------------------------------------------------|
D|----4----4----7-----------------------------------------------------------|
A|----2---------------------------------------------------------------------|
E|--------------------------------------------------------------------------|

    Break
e|-------------------------------------------------------------------------|
B|-------------------------------------------------------------------------|
G|-------------------------------------------------------------------------|
D|--9--7--7--5--3--2--2----------------------------------------------------|
A|--9--7--7--5--3--2--2----------------------------------------------------|
E|--5--0--3--0--1--0--0----------------------------------------------------|

e|-----------------------------------------------------------------------|
B|-----------------------------------------------------------------------|
G|-----------------------------------------------------------------------|
D|--2--2--4--------------------------------------------------------------|
A|--2--2--4--------------------------------------------------------------|
E|--0--0--2--------------------------------------------------------------|

   First Part Of Solo
e|-------------------------------------------------------------------------|
B|-------------------------------------------------------------------------|
G|------------------------------9-9--11-11--9-9----------------------------|
D|---9-9--11-11--12-12-------------------------12-12--11-11----------------|
A|-------------------------------------------------------------------------|
E|-------------------------------------------------------------------------|

e|-------------------------------------------------------------------------|
B|-------------------------------------------------------------------------|
G|-------------------------------------------------------------------------|
D|---------12-12--11-11----------------12-12--11-11------------------------|
A|----9-9--------------------12-12--9-9-------------------12-12------------|
E|-------------------------------------------------------------------------|

| /  slide up
| \  slide down
| h  hammer-on
| p  pull-off
| ~  vibrato
| +  harmonic
| x  Mute note

 The strumming is up and down and partially muted. Listen to the song carefully and you'll catch
it. The beginning of the solo is very easy pick the stings up and down fast. I haven't been able to
catch the rest yet but I know its on B. Questions or comments email goingdown2die@yahoo.com.Enjoy
Tap to rate this tab
# A B C D E F G H I J K L M N O P Q R S T U V W X Y Z