Song name
# A B C D E F G H I J K L M N O P Q R S T U V W X Y Z

Blitzkid - Nosferatu tab

-------------------------------------------------------------------------------
			     Nosferatu - Blitzkid
-------------------------------------------------------------------------------
Tabbed by: Edward Ghoul
Email: sakirvader@gmail.com

Tuning: EADGBe

Intro
e|-------------------------|
B|-------------------------|
G|--7----5-----------------|
D|--7----5----5------------|
A|--5----3----5------------|
E|------------3------------|

This basically the entire song, Verse and Chorus. Play it fast. Wears your arm out after a while.
e|-------------------------|
B|-------------------------|
G|--7777-5555--------------|
D|--7777-5555-55555555-----|
A|--5555-3333-55555555-----|
E|------------33333333-----|

Play this on the second verse.
e|-------------------------|
B|-------------------------|
G|--7--7-5--5--------------|
D|--7--7-5--5-5------------|
A|--5--5-3--3-5------------|
E|------------3------------|
Tap to rate this tab
# A B C D E F G H I J K L M N O P Q R S T U V W X Y Z